  0
SECTION
  2
HEADER
  9
$ACADVER
  1
AC1015
  9
$ACADMAINTVER
 70
     6
  9
$DWGCODEPAGE
  3
ANSI_1254
  9
$INSBASE
 10
0.0
 20
0.0
 30
0.0
  9
$EXTMIN
 10
0.0
 20
0.0
 30
0.0
  9
$EXTMAX
 10
279.4
 20
215.9
 30
0.0
  9
$LIMMIN
 10
0.0
 20
0.0
  9
$LIMMAX
 10
279.4
 20
215.9
  9
$ORTHOMODE
 70
     0
  9
$REGENMODE
 70
     1
  9
$FILLMODE
 70
     1
  9
$QTEXTMODE
 70
     0
  9
$MIRRTEXT
 70
     1
  9
$LTSCALE
 40
1.0
  9
$ATTMODE
 70
     1
  9
$TEXTSIZE
 40
3.5
  9
$TRACEWID
 40
1.0
  9
$TEXTSTYLE
  7
Standard
  9
$CLAYER
  8
0
  9
$CELTYPE
  6
ByLayer
  9
$CECOLOR
 62
   256
  9
$CELTSCALE
 40
1.0
  9
$DISPSILH
 70
     0
  9
$DIMSCALE
 40
1.0
  9
$DIMASZ
 40
3.5
  9
$DIMEXO
 40
1.0
  9
$DIMDLI
 40
3.75
  9
$DIMRND
 40
0.0
  9
$DIMDLE
 40
0.0
  9
$DIMEXE
 40
1.0
  9
$DIMTP
 40
0.0
  9
$DIMTM
 40
0.0
  9
$DIMTXT
 40
3.5
  9
$DIMCEN
 40
2.5
  9
$DIMTSZ
 40
0.0
  9
$DIMTOL
 70
     0
  9
$DIMLIM
 70
     0
  9
$DIMTIH
 70
     1
  9
$DIMTOH
 70
     1
  9
$DIMSE1
 70
     0
  9
$DIMSE2
 70
     0
  9
$DIMTAD
 70
     1
  9
$DIMZIN
 70
     0
  9
$DIMBLK
  1

  9
$DIMASO
 70
     1
  9
$DIMSHO
 70
     1
  9
$DIMPOST
  1

  9
$DIMAPOST
  1

  9
$DIMALT
 70
     0
  9
$DIMALTD
 70
     3
  9
$DIMALTF
 40
0.0393700787
  9
$DIMLFAC
 40
1.0
  9
$DIMTOFL
 70
     1
  9
$DIMTVP
 40
0.0
  9
$DIMTIX
 70
     0
  9
$DIMSOXD
 70
     0
  9
$DIMSAH
 70
     0
  9
$DIMBLK1
  1

  9
$DIMBLK2
  1

  9
$DIMSTYLE
  2
ISO-25
  9
$DIMCLRD
 70
     0
  9
$DIMCLRE
 70
     0
  9
$DIMCLRT
 70
     0
  9
$DIMTFAC
 40
1.0
  9
$DIMGAP
 40
1.524
  9
$DIMJUST
 70
     0
  9
$DIMSD1
 70
     0
  9
$DIMSD2
 70
     0
  9
$DIMTOLJ
 70
     0
  9
$DIMTZIN
 70
     0
  9
$DIMALTZ
 70
     0
  9
$DIMALTTZ
 70
     0
  9
$DIMUPT
 70
     0
  9
$DIMDEC
 70
     2
  9
$DIMTDEC
 70
     2
  9
$DIMALTU
 70
     2
  9
$DIMALTTD
 70
     3
  9
$DIMTXSTY
  7
Standard
  9
$DIMAUNIT
 70
     0
  9
$DIMADEC
 70
     2
  9
$DIMALTRND
 40
0.0
  9
$DIMAZIN
 70
     0
  9
$DIMDSEP
 70
    44
  9
$DIMATFIT
 70
     3
  9
$DIMFRAC
 70
     0
  9
$DIMLDRBLK
  1

  9
$DIMLUNIT
 70
     2
  9
$DIMLWD
 70
    -2
  9
$DIMLWE
 70
    -2
  9
$DIMTMOVE
 70
     0
  9
$LUNITS
 70
     2
  9
$LUPREC
 70
     2
  9
$SKETCHINC
 40
1.0
  9
$FILLETRAD
 40
10.0
  9
$AUNITS
 70
     0
  9
$AUPREC
 70
     2
  9
$MENU
  1
.
  9
$ELEVATION
 40
0.0
  9
$PELEVATION
 40
0.0
  9
$THICKNESS
 40
0.0
  9
$LIMCHECK
 70
     0
  9
$CHAMFERA
 40
0.0
  9
$CHAMFERB
 40
0.0
  9
$CHAMFERC
 40
0.0
  9
$CHAMFERD
 40
0.0
  9
$SKPOLY
 70
     0
  9
$TDCREATE
 40
2459741.592418542
  9
$TDUCREATE
 40
2459741.467418542
  9
$TDUPDATE
 40
2459741.592420139
  9
$TDUUPDATE
 40
2459741.467420139
  9
$TDINDWG
 40
0.0000000116
  9
$TDUSRTIMER
 40
0.0000000116
  9
$USRTIMER
 70
     1
  9
$ANGBASE
 50
0.0
  9
$ANGDIR
 70
     0
  9
$PDMODE
 70
     0
  9
$PDSIZE
 40
-1.0
  9
$PLINEWID
 40
0.0
  9
$SPLFRAME
 70
     0
  9
$SPLINETYPE
 70
     6
  9
$SPLINESEGS
 70
     8
  9
$HANDSEED
  5
11E
  9
$SURFTAB1
 70
     6
  9
$SURFTAB2
 70
     6
  9
$SURFTYPE
 70
     6
  9
$SURFU
 70
     6
  9
$SURFV
 70
     6
  9
$UCSBASE
  2

  9
$UCSNAME
  2

  9
$UCSORG
 10
0.0
 20
0.0
 30
0.0
  9
$UCSXDIR
 10
1.0
 20
0.0
 30
0.0
  9
$UCSYDIR
 10
0.0
 20
1.0
 30
0.0
  9
$UCSORTHOREF
  2

  9
$UCSORTHOVIEW
 70
     0
  9
$UCSORGTOP
 10
0.0
 20
0.0
 30
0.0
  9
$UCSORGBOTTOM
 10
0.0
 20
0.0
 30
0.0
  9
$UCSORGLEFT
 10
0.0
 20
0.0
 30
0.0
  9
$UCSORGRIGHT
 10
0.0
 20
0.0
 30
0.0
  9
$UCSORGFRONT
 10
0.0
 20
0.0
 30
0.0
  9
$UCSORGBACK
 10
0.0
 20
0.0
 30
0.0
  9
$PUCSBASE
  2

  9
$PUCSNAME
  2

  9
$PUCSORG
 10
0.0
 20
0.0
 30
0.0
  9
$PUCSXDIR
 10
1.0
 20
0.0
 30
0.0
  9
$PUCSYDIR
 10
0.0
 20
1.0
 30
0.0
  9
$PUCSORTHOREF
  2

  9
$PUCSORTHOVIEW
 70
     0
  9
$PUCSORGTOP
 10
0.0
 20
0.0
 30
0.0
  9
$PUCSORGBOTTOM
 10
0.0
 20
0.0
 30
0.0
  9
$PUCSORGLEFT
 10
0.0
 20
0.0
 30
0.0
  9
$PUCSORGRIGHT
 10
0.0
 20
0.0
 30
0.0
  9
$PUCSORGFRONT
 10
0.0
 20
0.0
 30
0.0
  9
$PUCSORGBACK
 10
0.0
 20
0.0
 30
0.0
  9
$USERI1
 70
     0
  9
$USERI2
 70
     0
  9
$USERI3
 70
     0
  9
$USERI4
 70
     0
  9
$USERI5
 70
     0
  9
$USERR1
 40
0.0
  9
$USERR2
 40
0.0
  9
$USERR3
 40
0.0
  9
$USERR4
 40
0.0
  9
$USERR5
 40
0.0
  9
$WORLDVIEW
 70
     1
  9
$SHADEDGE
 70
     3
  9
$SHADEDIF
 70
    70
  9
$TILEMODE
 70
     1
  9
$MAXACTVP
 70
    64
  9
$PINSBASE
 10
0.0
 20
0.0
 30
0.0
  9
$PLIMCHECK
 70
     0
  9
$PEXTMIN
 10
1.0000000000E+20
 20
1.0000000000E+20
 30
1.0000000000E+20
  9
$PEXTMAX
 10
-1.0000000000E+20
 20
-1.0000000000E+20
 30
-1.0000000000E+20
  9
$PLIMMIN
 10
0.0
 20
0.0
  9
$PLIMMAX
 10
420.0
 20
297.0
  9
$UNITMODE
 70
     0
  9
$VISRETAIN
 70
     1
  9
$PLINEGEN
 70
     0
  9
$PSLTSCALE
 70
     1
  9
$TREEDEPTH
 70
  3020
  9
$CMLSTYLE
  2
Standard
  9
$CMLJUST
 70
     0
  9
$CMLSCALE
 40
20.0
  9
$PROXYGRAPHICS
 70
     1
  9
$MEASUREMENT
 70
     1
  9
$CELWEIGHT
370
    -1
  9
$ENDCAPS
280
     0
  9
$JOINSTYLE
280
     0
  9
$LWDISPLAY
290
     1
  9
$INSUNITS
 70
     4
  9
$HYPERLINKBASE
  1

  9
$STYLESHEET
  1

  9
$XEDIT
290
     1
  9
$CEPSNTYPE
380
     0
  9
$PSTYLEMODE
290
     1
  9
$FINGERPRINTGUID
  2
{2c9b420a-abcd-486e-8098-bcb2fadcae06}
  9
$VERSIONGUID
  2
{FAEB1C32-E019-11D5-929B-00C0DF256EC4}
  9
$EXTNAMES
290
     1
  9
$PSVPSCALE
 40
0.0
  9
$OLESTARTUP
290
     0
  0
ENDSEC
  0
SECTION
  2
CLASSES
  0
CLASS
  1
ACDBDICTIONARYWDFLT
  2
AcDbDictionaryWithDefault
  3
ObjectDBX Classes
 90
        0
280
     0
281
     0
  0
CLASS
  1
VISUALSTYLE
  2
AcDbVisualStyle
  3
ObjectDBX Classes
 90
     4095
280
     0
281
     0
  0
CLASS
  1
MATERIAL
  2
AcDbMaterial
  3
ObjectDBX Classes
 90
     1153
280
     0
281
     0
  0
CLASS
  1
SCALE
  2
AcDbScale
  3
ObjectDBX Classes
 90
     1153
280
     0
281
     0
  0
CLASS
  1
TABLESTYLE
  2
AcDbTableStyle
  3
ObjectDBX Classes
 90
     4095
280
     0
281
     0
  0
CLASS
  1
MLEADERSTYLE
  2
AcDbMLeaderStyle
  3
ACDB_MLEADERSTYLE_CLASS
 90
     4095
280
     0
281
     0
  0
CLASS
  1
SUN
  2
AcDbSun
  3
SCENEOE
 90
     1153
280
     0
281
     0
  0
CLASS
  1
ACDBPLACEHOLDER
  2
AcDbPlaceHolder
  3
ObjectDBX Classes
 90
        0
280
     0
281
     0
  0
CLASS
  1
LAYOUT
  2
AcDbLayout
  3
ObjectDBX Classes
 90
        0
280
     0
281
     0
  0
ENDSEC
  0
SECTION
  2
TABLES
  0
TABLE
  2
VPORT
  5
8
330
0
100
AcDbSymbolTable
 70
     1
  0
VPORT
  5
29
330
8
100
AcDbSymbolTableRecord
100
AcDbViewportTableRecord
  2
*Active
 70
     0
 10
0.0
 20
0.0
 11
1.0
 21
1.0
 12
139.7
 22
107.95
 13
0.0
 23
0.0
 14
10.0
 24
10.0
 15
10.0
 25
10.0
 16
0.0
 26
0.0
 36
1.0
 17
0.0
 27
0.0
 37
0.0
 40
215.9
 41
1.2941176471
 42
50.0
 43
0.0
 44
0.0
 50
0.0
 51
0.0
 71
     0
 72
  2000
 73
     1
 74
     3
 75
     0
 76
     0
 77
     0
 78
     0
281
     0
 65
     1
110
0.0
120
0.0
130
0.0
111
1.0
121
0.0
131
0.0
112
0.0
122
1.0
132
0.0
 79
     0
146
0.0
  0
ENDTAB
  0
TABLE
  2
LTYPE
  5
5
330
0
100
AcDbSymbolTable
 70
     6
  0
LTYPE
  5
14
330
5
100
AcDbSymbolTableRecord
100
AcDbLinetypeTableRecord
  2
ByBlock
 70
     0
  3

 72
    65
 73
     0
 40
0.0
  0
LTYPE
  5
15
330
5
100
AcDbSymbolTableRecord
100
AcDbLinetypeTableRecord
  2
ByLayer
 70
     0
  3

 72
    65
 73
     0
 40
0.0
  0
LTYPE
  5
16
330
5
100
AcDbSymbolTableRecord
100
AcDbLinetypeTableRecord
  2
Continuous
 70
     0
  3
Solid line
 72
    65
 73
     0
 40
0.0
  0
LTYPE
  5
6E
330
5
100
AcDbSymbolTableRecord
100
AcDbLinetypeTableRecord
  2
HIDDEN
 70
     0
  3
Hidden __ __ __ __ __ __ __ __ __ __ __ __ __ __
 72
    65
 73
     2
 40
1.905
 49
1.27
 74
     0
 49
-0.635
 74
     0
  0
LTYPE
  5
6F
330
5
100
AcDbSymbolTableRecord
100
AcDbLinetypeTableRecord
  2
PHANTOM
 70
     0
  3
Phantom ______  __  __  ______  __  __  ______
 72
    65
 73
     6
 40
12.7
 49
6.35
 74
     0
 49
-1.27
 74
     0
 49
1.27
 74
     0
 49
-1.27
 74
     0
 49
1.27
 74
     0
 49
-1.27
 74
     0
  0
LTYPE
  5
70
330
5
100
AcDbSymbolTableRecord
100
AcDbLinetypeTableRecord
  2
CENTER
 70
     0
  3
Center ____ _ ____ _ ____ _ ____ _ ____ _ ____
 72
    65
 73
     4
 40
10.16
 49
6.35
 74
     0
 49
-1.27
 74
     0
 49
1.27
 74
     0
 49
-1.27
 74
     0
  0
LTYPE
  5
71
330
5
100
AcDbSymbolTableRecord
100
AcDbLinetypeTableRecord
  2
CENTERX2
 70
     0
  3
Center (2x) ________  __  ________  __  _____
 72
    65
 73
     4
 40
20.32
 49
12.7
 74
     0
 49
-2.54
 74
     0
 49
2.54
 74
     0
 49
-2.54
 74
     0
  0
LTYPE
  5
72
330
5
100
AcDbSymbolTableRecord
100
AcDbLinetypeTableRecord
  2
DOT2
 70
     0
  3
Dot (.5x) ........................................
 72
    65
 73
     2
 40
0.635
 49
0.0
 74
     0
 49
-0.635
 74
     0
  0
ENDTAB
  0
TABLE
  2
LAYER
  5
2
330
0
100
AcDbSymbolTable
 70
    17
  0
LAYER
  5
10
330
2
100
AcDbSymbolTableRecord
100
AcDbLayerTableRecord
  2
0
 70
     0
 62
     7
  6
Continuous
370
    -3
390
F
  0
LAYER
  5
73
330
2
100
AcDbSymbolTableRecord
100
AcDbLayerTableRecord
  2
FORMAT
 70
     0
 62
     7
  6
Continuous
370
    -3
390
F
  0
LAYER
  5
74
330
2
100
AcDbSymbolTableRecord
100
AcDbLayerTableRecord
  2
YARDIMCI_GEOMETRI
 70
     0
 62
    -6
  6
Continuous
290
     0
370
    -3
390
F
  0
LAYER
  5
75
330
2
100
AcDbSymbolTableRecord
100
AcDbLayerTableRecord
  2
SAYFA_CERCEVESI
 70
     0
 62
     7
  6
Continuous
370
    25
390
F
  0
LAYER
  5
76
330
2
100
AcDbSymbolTableRecord
100
AcDbLayerTableRecord
  2
ANTET
 70
     0
 62
     7
  6
Continuous
370
    -3
390
F
  0
LAYER
  5
77
330
2
100
AcDbSymbolTableRecord
100
AcDbLayerTableRecord
  2
OLCU
 70
     0
 62
   150
  6
Continuous
370
    -3
390
F
  0
LAYER
  5
78
330
2
100
AcDbSymbolTableRecord
100
AcDbLayerTableRecord
  2
METIN
 70
     0
 62
    96
  6
Continuous
370
    -3
390
F
  0
LAYER
  5
79
330
2
100
AcDbSymbolTableRecord
100
AcDbLayerTableRecord
  2
BALON
 70
     0
 62
     5
  6
Continuous
370
    -3
390
F
  0
LAYER
  5
7A
330
2
100
AcDbSymbolTableRecord
100
AcDbLayerTableRecord
  2
VURGU
 70
     0
 62
     7
  6
Continuous
370
    -3
390
F
  0
LAYER
  5
7B
330
2
100
AcDbSymbolTableRecord
100
AcDbLayerTableRecord
  2
SILIK
 70
     0
 62
     7
  6
Continuous
370
    -3
390
F
  0
LAYER
  5
7C
330
2
100
AcDbSymbolTableRecord
100
AcDbLayerTableRecord
  2
MODEL
 70
     0
 62
     7
  6
Continuous
370
    -3
390
F
  0
LAYER
  5
7D
330
2
100
AcDbSymbolTableRecord
100
AcDbLayerTableRecord
  2
DETAYLANDıRMA
 70
     0
 62
   190
  6
Continuous
370
    -3
390
F
  0
LAYER
  5
7E
330
2
100
AcDbSymbolTableRecord
100
AcDbLayerTableRecord
  2
TOLERANS
 70
     0
 62
   230
  6
Continuous
370
    -3
390
F
  0
LAYER
  5
7F
330
2
100
AcDbSymbolTableRecord
100
AcDbLayerTableRecord
  2
MERKEZ_CIZGILERI
 70
     0
 62
    30
  6
Continuous
370
    -3
390
F
  0
LAYER
  5
80
330
2
100
AcDbSymbolTableRecord
100
AcDbLayerTableRecord
  2
KESIT-DETAY_CIZGILERI
 70
     0
 62
     7
  6
Continuous
370
    -3
390
F
  0
LAYER
  5
81
330
2
100
AcDbSymbolTableRecord
100
AcDbLayerTableRecord
  2
\U+041E\U+0421\U+0415\U+0412\U+042B\U+0415
 70
     0
 62
     7
  6
Continuous
370
    -3
390
F
  0
LAYER
  5
82
330
2
100
AcDbSymbolTableRecord
100
AcDbLayerTableRecord
  2
\U+0412\U+041E\U+0414\U+042F\U+041D\U+042B\U+0415_\U+0417\U+041D\U+0410\U+041A\U+0418
 70
     0
 62
    11
  6
Continuous
370
    -3
390
F
  0
ENDTAB
  0
TABLE
  2
STYLE
  5
3
330
0
100
AcDbSymbolTable
 70
     1
  0
STYLE
  5
11
330
3
100
AcDbSymbolTableRecord
100
AcDbTextStyleTableRecord
  2
Standard
 70
     0
 40
0.0
 41
1.0
 50
0.0
 71
     0
 42
3.5
  3
txt
  4

  0
ENDTAB
  0
TABLE
  2
VIEW
  5
6
330
0
100
AcDbSymbolTable
 70
     0
  0
ENDTAB
  0
TABLE
  2
UCS
  5
7
330
0
100
AcDbSymbolTable
 70
     0
  0
ENDTAB
  0
TABLE
  2
APPID
  5
9
330
0
100
AcDbSymbolTable
 70
     1
  0
APPID
  5
12
330
9
100
AcDbSymbolTableRecord
100
AcDbRegAppTableRecord
  2
ACAD
 70
     0
  0
ENDTAB
  0
TABLE
  2
DIMSTYLE
  5
A
330
0
100
AcDbSymbolTable
 70
     1
100
AcDbDimStyleTable
  0
DIMSTYLE
105
27
330
A
100
AcDbSymbolTableRecord
100
AcDbDimStyleTableRecord
  2
ISO-25
 70
     0
 41
2.5
 42
0.625
 43
3.75
 44
1.25
 73
     0
 74
     0
 77
     1
 78
     8
140
2.5
141
2.5
143
0.0393700787
147
0.625
171
     3
172
     1
178
     0
271
     2
272
     2
274
     3
278
    44
283
     0
284
     8
340
11
  0
ENDTAB
  0
TABLE
  2
BLOCK_RECORD
  5
1
330
0
100
AcDbSymbolTable
 70
     6
  0
BLOCK_RECORD
  5
1F
330
1
100
AcDbSymbolTableRecord
100
AcDbBlockTableRecord
  2
*Model_Space
340
22
  0
BLOCK_RECORD
  5
1B
330
1
100
AcDbSymbolTableRecord
100
AcDbBlockTableRecord
  2
*Paper_Space
340
1E
  0
BLOCK_RECORD
  5
23
330
1
100
AcDbSymbolTableRecord
100
AcDbBlockTableRecord
  2
*Paper_Space0
340
26
  0
BLOCK_RECORD
  5
8F
330
1
100
AcDbSymbolTableRecord
100
AcDbBlockTableRecord
  2
SW_CENTERMARKSYMBOL_0
340
0
102
{BLKREFS
331
9A
102
}
  0
BLOCK_RECORD
  5
9B
330
1
100
AcDbSymbolTableRecord
100
AcDbBlockTableRecord
  2
SW_CENTERMARKSYMBOL_1
340
0
102
{BLKREFS
331
A6
102
}
  0
BLOCK_RECORD
  5
A7
330
1
100
AcDbSymbolTableRecord
100
AcDbBlockTableRecord
  2
SW_CENTERMARKSYMBOL_2
340
0
102
{BLKREFS
331
B2
102
}
  0
BLOCK_RECORD
  5
B3
330
1
100
AcDbSymbolTableRecord
100
AcDbBlockTableRecord
  2
SW_CENTERMARKSYMBOL_3
340
0
102
{BLKREFS
331
BE
102
}
  0
BLOCK_RECORD
  5
BF
330
1
100
AcDbSymbolTableRecord
100
AcDbBlockTableRecord
  2
SW_CENTERMARKSYMBOL_4
340
0
102
{BLKREFS
331
CA
102
}
  0
ENDTAB
  0
ENDSEC
  0
SECTION
  2
BLOCKS
  0
BLOCK
  5
20
330
1F
100
AcDbEntity
  8
0
100
AcDbBlockBegin
  2
*Model_Space
 70
     0
 10
0.0
 20
0.0
 30
0.0
  3
*Model_Space
  1

  0
ENDBLK
  5
21
330
1F
100
AcDbEntity
  8
0
100
AcDbBlockEnd
  0
BLOCK
  5
1C
330
1B
100
AcDbEntity
 67
     1
  8
0
100
AcDbBlockBegin
  2
*Paper_Space
 70
     0
 10
0.0
 20
0.0
 30
0.0
  3
*Paper_Space
  1

  0
ENDBLK
  5
1D
330
1B
100
AcDbEntity
 67
     1
  8
0
100
AcDbBlockEnd
  0
BLOCK
  5
24
330
23
100
AcDbEntity
  8
0
100
AcDbBlockBegin
  2
*Paper_Space0
 70
     0
 10
0.0
 20
0.0
 30
0.0
  3
*Paper_Space0
  1

  0
ENDBLK
  5
25
330
23
100
AcDbEntity
  8
0
100
AcDbBlockEnd
  0
BLOCK
  5
90
330
8F
100
AcDbEntity
  8
0
100
AcDbBlockBegin
  2
SW_CENTERMARKSYMBOL_0
 70
     0
 10
0.0
 20
0.0
 30
0.0
  3
SW_CENTERMARKSYMBOL_0
  1

  0
LINE
  5
92
330
8F
100
AcDbEntity
  8
FORMAT
 62
     0
100
AcDbLine
 10
0.0
 20
0.0
 30
0.0
 11
0.0
 21
2.5
 31
0.0
  0
LINE
  5
93
330
8F
100
AcDbEntity
  8
FORMAT
 62
     0
100
AcDbLine
 10
0.0
 20
0.0
 30
0.0
 11
-2.5
 21
0.0
 31
0.0
  0
LINE
  5
94
330
8F
100
AcDbEntity
  8
FORMAT
 62
     0
100
AcDbLine
 10
0.0
 20
0.0
 30
0.0
 11
0.0
 21
-2.5
 31
0.0
  0
LINE
  5
95
330
8F
100
AcDbEntity
  8
FORMAT
 62
     0
100
AcDbLine
 10
0.0
 20
0.0
 30
0.0
 11
2.5
 21
0.0
 31
0.0
  0
LINE
  5
96
330
8F
100
AcDbEntity
  8
FORMAT
 62
     0
100
AcDbLine
 10
0.0
 20
5.0
 30
0.0
 11
0.0
 21
77.5
 31
0.0
  0
LINE
  5
97
330
8F
100
AcDbEntity
  8
FORMAT
 62
     0
100
AcDbLine
 10
-5.0
 20
0.0
 30
0.0
 11
-77.5
 21
0.0
 31
0.0
  0
LINE
  5
98
330
8F
100
AcDbEntity
  8
FORMAT
 62
     0
100
AcDbLine
 10
0.0
 20
-5.0
 30
0.0
 11
0.0
 21
-77.5
 31
0.0
  0
LINE
  5
99
330
8F
100
AcDbEntity
  8
FORMAT
 62
     0
100
AcDbLine
 10
5.0
 20
0.0
 30
0.0
 11
77.5
 21
0.0
 31
0.0
  0
ENDBLK
  5
91
330
8F
100
AcDbEntity
  8
0
100
AcDbBlockEnd
  0
BLOCK
  5
9C
330
9B
100
AcDbEntity
  8
0
100
AcDbBlockBegin
  2
SW_CENTERMARKSYMBOL_1
 70
     0
 10
0.0
 20
0.0
 30
0.0
  3
SW_CENTERMARKSYMBOL_1
  1

  0
LINE
  5
9E
330
9B
100
AcDbEntity
  8
FORMAT
 62
     0
100
AcDbLine
 10
0.0
 20
0.0
 30
0.0
 11
0.0
 21
2.5
 31
0.0
  0
LINE
  5
9F
330
9B
100
AcDbEntity
  8
FORMAT
 62
     0
100
AcDbLine
 10
0.0
 20
0.0
 30
0.0
 11
-2.5
 21
0.0
 31
0.0
  0
LINE
  5
A0
330
9B
100
AcDbEntity
  8
FORMAT
 62
     0
100
AcDbLine
 10
0.0
 20
0.0
 30
0.0
 11
0.0
 21
-2.5
 31
0.0
  0
LINE
  5
A1
330
9B
100
AcDbEntity
  8
FORMAT
 62
     0
100
AcDbLine
 10
0.0
 20
0.0
 30
0.0
 11
2.5
 21
0.0
 31
0.0
  0
LINE
  5
A2
330
9B
100
AcDbEntity
  8
FORMAT
 62
     0
100
AcDbLine
 10
0.0
 20
5.0
 30
0.0
 11
0.0
 21
11.5
 31
0.0
  0
LINE
  5
A3
330
9B
100
AcDbEntity
  8
FORMAT
 62
     0
100
AcDbLine
 10
-5.0
 20
0.0
 30
0.0
 11
-11.5
 21
0.0
 31
0.0
  0
LINE
  5
A4
330
9B
100
AcDbEntity
  8
FORMAT
 62
     0
100
AcDbLine
 10
0.0
 20
-5.0
 30
0.0
 11
0.0
 21
-11.5
 31
0.0
  0
LINE
  5
A5
330
9B
100
AcDbEntity
  8
FORMAT
 62
     0
100
AcDbLine
 10
5.0
 20
0.0
 30
0.0
 11
11.5
 21
0.0
 31
0.0
  0
ENDBLK
  5
9D
330
9B
100
AcDbEntity
  8
0
100
AcDbBlockEnd
  0
BLOCK
  5
A8
330
A7
100
AcDbEntity
  8
0
100
AcDbBlockBegin
  2
SW_CENTERMARKSYMBOL_2
 70
     0
 10
0.0
 20
0.0
 30
0.0
  3
SW_CENTERMARKSYMBOL_2
  1

  0
LINE
  5
AA
330
A7
100
AcDbEntity
  8
FORMAT
 62
     0
100
AcDbLine
 10
0.0
 20
0.0
 30
0.0
 11
0.0
 21
2.5
 31
0.0
  0
LINE
  5
AB
330
A7
100
AcDbEntity
  8
FORMAT
 62
     0
100
AcDbLine
 10
0.0
 20
0.0
 30
0.0
 11
-2.5
 21
0.0
 31
0.0
  0
LINE
  5
AC
330
A7
100
AcDbEntity
  8
FORMAT
 62
     0
100
AcDbLine
 10
0.0
 20
0.0
 30
0.0
 11
0.0
 21
-2.5
 31
0.0
  0
LINE
  5
AD
330
A7
100
AcDbEntity
  8
FORMAT
 62
     0
100
AcDbLine
 10
0.0
 20
0.0
 30
0.0
 11
2.5
 21
0.0
 31
0.0
  0
LINE
  5
AE
330
A7
100
AcDbEntity
  8
FORMAT
 62
     0
100
AcDbLine
 10
0.0
 20
5.0
 30
0.0
 11
0.0
 21
11.5
 31
0.0
  0
LINE
  5
AF
330
A7
100
AcDbEntity
  8
FORMAT
 62
     0
100
AcDbLine
 10
-5.0
 20
0.0
 30
0.0
 11
-11.5
 21
0.0
 31
0.0
  0
LINE
  5
B0
330
A7
100
AcDbEntity
  8
FORMAT
 62
     0
100
AcDbLine
 10
0.0
 20
-5.0
 30
0.0
 11
0.0
 21
-11.5
 31
0.0
  0
LINE
  5
B1
330
A7
100
AcDbEntity
  8
FORMAT
 62
     0
100
AcDbLine
 10
5.0
 20
0.0
 30
0.0
 11
11.5
 21
0.0
 31
0.0
  0
ENDBLK
  5
A9
330
A7
100
AcDbEntity
  8
0
100
AcDbBlockEnd
  0
BLOCK
  5
B4
330
B3
100
AcDbEntity
  8
0
100
AcDbBlockBegin
  2
SW_CENTERMARKSYMBOL_3
 70
     0
 10
0.0
 20
0.0
 30
0.0
  3
SW_CENTERMARKSYMBOL_3
  1

  0
LINE
  5
B6
330
B3
100
AcDbEntity
  8
FORMAT
 62
     0
100
AcDbLine
 10
0.0
 20
0.0
 30
0.0
 11
0.0
 21
2.5
 31
0.0
  0
LINE
  5
B7
330
B3
100
AcDbEntity
  8
FORMAT
 62
     0
100
AcDbLine
 10
0.0
 20
0.0
 30
0.0
 11
-2.5
 21
0.0
 31
0.0
  0
LINE
  5
B8
330
B3
100
AcDbEntity
  8
FORMAT
 62
     0
100
AcDbLine
 10
0.0
 20
0.0
 30
0.0
 11
0.0
 21
-2.5
 31
0.0
  0
LINE
  5
B9
330
B3
100
AcDbEntity
  8
FORMAT
 62
     0
100
AcDbLine
 10
0.0
 20
0.0
 30
0.0
 11
2.5
 21
0.0
 31
0.0
  0
LINE
  5
BA
330
B3
100
AcDbEntity
  8
FORMAT
 62
     0
100
AcDbLine
 10
0.0
 20
5.0
 30
0.0
 11
0.0
 21
11.5
 31
0.0
  0
LINE
  5
BB
330
B3
100
AcDbEntity
  8
FORMAT
 62
     0
100
AcDbLine
 10
-5.0
 20
0.0
 30
0.0
 11
-11.5
 21
0.0
 31
0.0
  0
LINE
  5
BC
330
B3
100
AcDbEntity
  8
FORMAT
 62
     0
100
AcDbLine
 10
0.0
 20
-5.0
 30
0.0
 11
0.0
 21
-11.5
 31
0.0
  0
LINE
  5
BD
330
B3
100
AcDbEntity
  8
FORMAT
 62
     0
100
AcDbLine
 10
5.0
 20
0.0
 30
0.0
 11
11.5
 21
0.0
 31
0.0
  0
ENDBLK
  5
B5
330
B3
100
AcDbEntity
  8
0
100
AcDbBlockEnd
  0
BLOCK
  5
C0
330
BF
100
AcDbEntity
  8
0
100
AcDbBlockBegin
  2
SW_CENTERMARKSYMBOL_4
 70
     0
 10
0.0
 20
0.0
 30
0.0
  3
SW_CENTERMARKSYMBOL_4
  1

  0
LINE
  5
C2
330
BF
100
AcDbEntity
  8
FORMAT
 62
     0
100
AcDbLine
 10
0.0
 20
0.0
 30
0.0
 11
0.0
 21
2.5
 31
0.0
  0
LINE
  5
C3
330
BF
100
AcDbEntity
  8
FORMAT
 62
     0
100
AcDbLine
 10
0.0
 20
0.0
 30
0.0
 11
-2.5
 21
0.0
 31
0.0
  0
LINE
  5
C4
330
BF
100
AcDbEntity
  8
FORMAT
 62
     0
100
AcDbLine
 10
0.0
 20
0.0
 30
0.0
 11
0.0
 21
-2.5
 31
0.0
  0
LINE
  5
C5
330
BF
100
AcDbEntity
  8
FORMAT
 62
     0
100
AcDbLine
 10
0.0
 20
0.0
 30
0.0
 11
2.5
 21
0.0
 31
0.0
  0
LINE
  5
C6
330
BF
100
AcDbEntity
  8
FORMAT
 62
     0
100
AcDbLine
 10
0.0
 20
5.0
 30
0.0
 11
0.0
 21
11.5
 31
0.0
  0
LINE
  5
C7
330
BF
100
AcDbEntity
  8
FORMAT
 62
     0
100
AcDbLine
 10
-5.0
 20
0.0
 30
0.0
 11
-11.5
 21
0.0
 31
0.0
  0
LINE
  5
C8
330
BF
100
AcDbEntity
  8
FORMAT
 62
     0
100
AcDbLine
 10
0.0
 20
-5.0
 30
0.0
 11
0.0
 21
-11.5
 31
0.0
  0
LINE
  5
C9
330
BF
100
AcDbEntity
  8
FORMAT
 62
     0
100
AcDbLine
 10
5.0
 20
0.0
 30
0.0
 11
11.5
 21
0.0
 31
0.0
  0
ENDBLK
  5
C1
330
BF
100
AcDbEntity
  8
0
100
AcDbBlockEnd
  0
ENDSEC
  0
SECTION
  2
ENTITIES
  0
CIRCLE
  5
83
330
1F
100
AcDbEntity
  8
0
  6
Continuous
 62
     7
370
    25
100
AcDbCircle
 10
137.8667640332
 20
48.5638469371
 30
0.0
 40
10.0
  0
CIRCLE
  5
84
330
1F
100
AcDbEntity
  8
0
  6
Continuous
 62
     7
370
    25
100
AcDbCircle
 10
137.8667640332
 20
158.5638469371
 30
0.0
 40
10.0
  0
CIRCLE
  5
85
330
1F
100
AcDbEntity
  8
0
  6
Continuous
 62
     7
370
    25
100
AcDbCircle
 10
137.8667640332
 20
103.5638469371
 30
0.0
 40
74.00000000000003
  0
CIRCLE
  5
86
330
1F
100
AcDbEntity
  8
0
  6
Continuous
 62
     7
370
    25
100
AcDbCircle
 10
137.8667640332
 20
103.5638469371
 30
0.0
 40
32.0
  0
CIRCLE
  5
87
330
1F
100
AcDbEntity
  8
0
  6
Continuous
 62
     7
370
    25
100
AcDbCircle
 10
192.8667640332
 20
103.5638469371
 30
0.0
 40
10.00000000000003
  0
CIRCLE
  5
88
330
1F
100
AcDbEntity
  8
0
  6
Continuous
 62
     7
370
    25
100
AcDbCircle
 10
82.8667640332
 20
103.5638469371
 30
0.0
 40
10.0
  0
CIRCLE
  5
89
330
1F
100
AcDbEntity
  8
0
  6
Continuous
 62
     7
370
    25
100
AcDbCircle
 10
137.8667640332
 20
103.5638469371
 30
0.0
 40
31.0
  0
CIRCLE
  5
8A
330
1F
100
AcDbEntity
  8
0
  6
Continuous
 62
     7
370
    25
100
AcDbCircle
 10
137.8667640332
 20
103.5638469371
 30
0.0
 40
75.00000000000003
  0
CIRCLE
  5
8B
330
1F
100
AcDbEntity
  8
0
  6
Continuous
 62
     7
370
    25
100
AcDbCircle
 10
137.8667640332
 20
158.5638469371
 30
0.0
 40
9.0
  0
CIRCLE
  5
8C
330
1F
100
AcDbEntity
  8
0
  6
Continuous
 62
     7
370
    25
100
AcDbCircle
 10
82.8667640332
 20
103.5638469371
 30
0.0
 40
9.0
  0
CIRCLE
  5
8D
330
1F
100
AcDbEntity
  8
0
  6
Continuous
 62
     7
370
    25
100
AcDbCircle
 10
192.8667640332
 20
103.5638469371
 30
0.0
 40
9.000000000000028
  0
CIRCLE
  5
8E
330
1F
100
AcDbEntity
  8
0
  6
Continuous
 62
     7
370
    25
100
AcDbCircle
 10
137.8667640332
 20
48.5638469371
 30
0.0
 40
9.0
  0
INSERT
  5
9A
330
1F
100
AcDbEntity
  8
FORMAT
 62
     7
100
AcDbBlockReference
  2
SW_CENTERMARKSYMBOL_0
 10
137.8667640332
 20
103.5638469371
 30
0.0
  0
INSERT
  5
A6
330
1F
100
AcDbEntity
  8
FORMAT
 62
     7
100
AcDbBlockReference
  2
SW_CENTERMARKSYMBOL_1
 10
137.8667640332
 20
158.5638469371
 30
0.0
  0
INSERT
  5
B2
330
1F
100
AcDbEntity
  8
FORMAT
 62
     7
100
AcDbBlockReference
  2
SW_CENTERMARKSYMBOL_2
 10
192.8667640332
 20
103.5638469371
 30
0.0
  0
INSERT
  5
BE
330
1F
100
AcDbEntity
  8
FORMAT
 62
     7
100
AcDbBlockReference
  2
SW_CENTERMARKSYMBOL_3
 10
137.8667640332
 20
48.5638469371
 30
0.0
  0
INSERT
  5
CA
330
1F
100
AcDbEntity
  8
FORMAT
 62
     7
100
AcDbBlockReference
  2
SW_CENTERMARKSYMBOL_4
 10
82.8667640332
 20
103.5638469371
 30
0.0
  0
LINE
  5
CB
330
1F
100
AcDbEntity
  8
0
  6
Continuous
 62
     7
370
    25
100
AcDbLine
 10
-33.1095814347
 20
178.5638469371
 30
0.0
 11
-49.1095814347
 21
178.5638469371
 31
0.0
  0
LINE
  5
CC
330
1F
100
AcDbEntity
  8
0
  6
Continuous
 62
     7
370
    25
100
AcDbLine
 10
-49.1095814347
 20
28.5638469371
 30
0.0
 11
-33.1095814347
 21
28.5638469371
 31
0.0
  0
ARC
  5
CD
330
1F
100
AcDbEntity
  8
0
  6
Continuous
 62
     7
370
    25
100
AcDbCircle
 10
-33.1095814347
 20
29.5638469371
 30
0.0
 40
1.0
100
AcDbArc
 50
270.0
 51
0.0
  0
ARC
  5
CE
330
1F
100
AcDbEntity
  8
0
  6
Continuous
 62
     7
370
    25
100
AcDbCircle
 10
-33.1095814347
 20
177.5638469371
 30
0.0
 40
1.0
100
AcDbArc
 50
0.0
 51
90.0
  0
ARC
  5
CF
330
1F
100
AcDbEntity
  8
0
  6
Continuous
 62
     7
370
    25
100
AcDbCircle
 10
-49.1095814347
 20
29.5638469371
 30
0.0
 40
1.0
100
AcDbArc
 50
180.0
 51
270.0
  0
ARC
  5
D0
330
1F
100
AcDbEntity
  8
0
  6
Continuous
 62
     7
370
    25
100
AcDbCircle
 10
-49.1095814347
 20
177.5638469371
 30
0.0
 40
1.0
100
AcDbArc
 50
90.0
 51
180.0
  0
LINE
  5
D1
330
1F
100
AcDbEntity
  8
0
  6
Continuous
 62
     7
370
    25
100
AcDbLine
 10
-32.1095814347
 20
103.5638469371
 30
0.0
 11
-32.1095814347
 21
29.5638469371
 31
0.0
  0
LINE
  5
D2
330
1F
100
AcDbEntity
  8
0
  6
Continuous
 62
     7
370
    25
100
AcDbLine
 10
-32.1095814347
 20
177.5638469371
 30
0.0
 11
-32.1095814347
 21
103.5638469371
 31
0.0
  0
LINE
  5
D3
330
1F
100
AcDbEntity
  8
0
  6
Continuous
 62
     7
370
    25
100
AcDbLine
 10
-50.1095814347
 20
103.5638469371
 30
0.0
 11
-50.1095814347
 21
177.5638469371
 31
0.0
  0
LINE
  5
D4
330
1F
100
AcDbEntity
  8
0
  6
Continuous
 62
     7
370
    25
100
AcDbLine
 10
-50.1095814347
 20
29.5638469371
 30
0.0
 11
-50.1095814347
 21
103.5638469371
 31
0.0
  0
LINE
  5
D5
330
1F
100
AcDbEntity
  8
0
  6
Continuous
 62
     1
370
    25
100
AcDbLine
 10
-49.1095814347
 20
103.5638469371
 30
0.0
 11
-49.1095814347
 21
28.5638469371
 31
0.0
  0
LINE
  5
D6
330
1F
100
AcDbEntity
  8
0
  6
Continuous
 62
     1
370
    25
100
AcDbLine
 10
-49.1095814347
 20
178.5638469371
 30
0.0
 11
-49.1095814347
 21
103.5638469371
 31
0.0
  0
LINE
  5
D7
330
1F
100
AcDbEntity
  8
0
  6
Continuous
 62
     1
370
    25
100
AcDbLine
 10
-33.1095814347
 20
103.5638469371
 30
0.0
 11
-33.1095814347
 21
178.5638469371
 31
0.0
  0
LINE
  5
D8
330
1F
100
AcDbEntity
  8
0
  6
Continuous
 62
     1
370
    25
100
AcDbLine
 10
-33.1095814347
 20
28.5638469371
 30
0.0
 11
-33.1095814347
 21
103.5638469371
 31
0.0
  0
LINE
  5
D9
330
1F
100
AcDbEntity
  8
0
  6
Continuous
 62
     7
370
    25
100
AcDbLine
 10
301.5032362703
 20
28.5638469371
 30
0.0
 11
317.5032362703
 21
28.5638469371
 31
0.0
  0
LINE
  5
DA
330
1F
100
AcDbEntity
  8
0
  6
Continuous
 62
     7
370
    25
100
AcDbLine
 10
317.5032362703
 20
178.5638469371
 30
0.0
 11
301.5032362703
 21
178.5638469371
 31
0.0
  0
ARC
  5
DB
330
1F
100
AcDbEntity
  8
0
  6
Continuous
 62
     7
370
    25
100
AcDbCircle
 10
301.5032362703
 20
177.5638469371
 30
0.0
 40
1.0
100
AcDbArc
 50
90.0
 51
180.0
  0
ARC
  5
DC
330
1F
100
AcDbEntity
  8
0
  6
Continuous
 62
     7
370
    25
100
AcDbCircle
 10
301.5032362703
 20
29.5638469371
 30
0.0
 40
1.0
100
AcDbArc
 50
180.0
 51
270.0
  0
ARC
  5
DD
330
1F
100
AcDbEntity
  8
0
  6
Continuous
 62
     7
370
    25
100
AcDbCircle
 10
317.5032362703
 20
177.5638469371
 30
0.0
 40
1.0
100
AcDbArc
 50
0.0
 51
90.0
  0
ARC
  5
DE
330
1F
100
AcDbEntity
  8
0
  6
Continuous
 62
     7
370
    25
100
AcDbCircle
 10
317.5032362703
 20
29.5638469371
 30
0.0
 40
1.0
100
AcDbArc
 50
270.0
 51
0.0
  0
LINE
  5
DF
330
1F
100
AcDbEntity
  8
0
  6
Continuous
 62
     7
370
    25
100
AcDbLine
 10
300.5032362703
 20
29.5638469371
 30
0.0
 11
300.5032362703
 21
177.5638469371
 31
0.0
  0
LINE
  5
E0
330
1F
100
AcDbEntity
  8
0
  6
Continuous
 62
     7
370
    25
100
AcDbLine
 10
318.5032362703
 20
177.5638469371
 30
0.0
 11
318.5032362703
 21
29.5638469371
 31
0.0
  0
LINE
  5
E1
330
1F
100
AcDbEntity
  8
0
  6
Continuous
 62
     1
370
    25
100
AcDbLine
 10
317.5032362703
 20
28.5638469371
 30
0.0
 11
317.5032362703
 21
178.5638469371
 31
0.0
  0
LINE
  5
E2
330
1F
100
AcDbEntity
  8
0
  6
Continuous
 62
     1
370
    25
100
AcDbLine
 10
301.5032362703
 20
178.5638469371
 30
0.0
 11
301.5032362703
 21
28.5638469371
 31
0.0
  0
LINE
  5
E3
330
1F
100
AcDbEntity
  8
0
  6
Continuous
 62
     7
370
    25
100
AcDbLine
 10
212.8667640332
 20
262.8170604693
 30
0.0
 11
212.8667640332
 21
278.8170604693
 31
0.0
  0
LINE
  5
E4
330
1F
100
AcDbEntity
  8
0
  6
Continuous
 62
     7
370
    25
100
AcDbLine
 10
62.8667640332
 20
278.8170604693
 30
0.0
 11
62.8667640332
 21
262.8170604693
 31
0.0
  0
ARC
  5
E5
330
1F
100
AcDbEntity
  8
0
  6
Continuous
 62
     7
370
    25
100
AcDbCircle
 10
63.8667640332
 20
262.8170604693
 30
0.0
 40
1.0
100
AcDbArc
 50
180.0
 51
270.0
  0
ARC
  5
E6
330
1F
100
AcDbEntity
  8
0
  6
Continuous
 62
     7
370
    25
100
AcDbCircle
 10
211.8667640332
 20
262.8170604693
 30
0.0
 40
1.0
100
AcDbArc
 50
270.0
 51
0.0
  0
ARC
  5
E7
330
1F
100
AcDbEntity
  8
0
  6
Continuous
 62
     7
370
    25
100
AcDbCircle
 10
63.8667640332
 20
278.8170604693
 30
0.0
 40
1.0
100
AcDbArc
 50
90.0
 51
180.0
  0
ARC
  5
E8
330
1F
100
AcDbEntity
  8
0
  6
Continuous
 62
     7
370
    25
100
AcDbCircle
 10
211.8667640332
 20
278.8170604693
 30
0.0
 40
1.0
100
AcDbArc
 50
0.0
 51
90.0
  0
LINE
  5
E9
330
1F
100
AcDbEntity
  8
0
  6
Continuous
 62
     7
370
    25
100
AcDbLine
 10
211.8667640332
 20
261.8170604693
 30
0.0
 11
63.8667640333
 21
261.8170604693
 31
0.0
  0
LINE
  5
EA
330
1F
100
AcDbEntity
  8
0
  6
Continuous
 62
     7
370
    25
100
AcDbLine
 10
63.8667640333
 20
279.8170604693
 30
0.0
 11
211.8667640332
 21
279.8170604693
 31
0.0
  0
LINE
  5
EB
330
1F
100
AcDbEntity
  8
0
  6
Continuous
 62
     1
370
    25
100
AcDbLine
 10
212.8667640332
 20
278.8170604693
 30
0.0
 11
62.8667640332
 21
278.8170604693
 31
0.0
  0
LINE
  5
EC
330
1F
100
AcDbEntity
  8
0
  6
Continuous
 62
     1
370
    25
100
AcDbLine
 10
62.8667640332
 20
262.8170604693
 30
0.0
 11
212.8667640332
 21
262.8170604693
 31
0.0
  0
LINE
  5
ED
330
1F
100
AcDbEntity
  8
0
  6
Continuous
 62
     7
370
    25
100
AcDbLine
 10
62.8667640332
 20
-70.8350994469
 30
0.0
 11
62.8667640332
 21
-86.8350994469
 31
0.0
  0
LINE
  5
EE
330
1F
100
AcDbEntity
  8
0
  6
Continuous
 62
     7
370
    25
100
AcDbLine
 10
212.8667640332
 20
-86.8350994469
 30
0.0
 11
212.8667640332
 21
-70.8350994469
 31
0.0
  0
ARC
  5
EF
330
1F
100
AcDbEntity
  8
0
  6
Continuous
 62
     7
370
    25
100
AcDbCircle
 10
211.8667640332
 20
-70.8350994469
 30
0.0
 40
1.0
100
AcDbArc
 50
0.0
 51
90.0
  0
ARC
  5
F0
330
1F
100
AcDbEntity
  8
0
  6
Continuous
 62
     7
370
    25
100
AcDbCircle
 10
63.8667640332
 20
-70.8350994469
 30
0.0
 40
1.0
100
AcDbArc
 50
90.0
 51
180.0
  0
ARC
  5
F1
330
1F
100
AcDbEntity
  8
0
  6
Continuous
 62
     7
370
    25
100
AcDbCircle
 10
211.8667640332
 20
-86.8350994469
 30
0.0
 40
1.000000000000014
100
AcDbArc
 50
270.0
 51
0.0
  0
ARC
  5
F2
330
1F
100
AcDbEntity
  8
0
  6
Continuous
 62
     7
370
    25
100
AcDbCircle
 10
63.8667640332
 20
-86.8350994469
 30
0.0
 40
1.000000000000014
100
AcDbArc
 50
180.0
 51
270.0
  0
LINE
  5
F3
330
1F
100
AcDbEntity
  8
0
  6
Continuous
 62
     7
370
    25
100
AcDbLine
 10
63.8667640333
 20
-69.8350994469
 30
0.0
 11
211.8667640332
 21
-69.8350994469
 31
0.0
  0
LINE
  5
F4
330
1F
100
AcDbEntity
  8
0
  6
Continuous
 62
     7
370
    25
100
AcDbLine
 10
211.8667640332
 20
-87.8350994469
 30
0.0
 11
63.8667640333
 21
-87.8350994469
 31
0.0
  0
LINE
  5
F5
330
1F
100
AcDbEntity
  8
0
  6
Continuous
 62
     1
370
    25
100
AcDbLine
 10
62.8667640332
 20
-86.8350994469
 30
0.0
 11
212.8667640332
 21
-86.8350994469
 31
0.0
  0
LINE
  5
F6
330
1F
100
AcDbEntity
  8
0
  6
Continuous
 62
     1
370
    25
100
AcDbLine
 10
212.8667640332
 20
-70.8350994469
 30
0.0
 11
62.8667640332
 21
-70.8350994469
 31
0.0
  0
SPLINE
  5
F7
330
1F
100
AcDbEntity
  8
0
  6
Continuous
 62
     7
370
    25
100
AcDbSpline
210
0.0
220
0.0
230
1.0
 70
     8
 71
     3
 72
    78
 73
    74
 74
     0
 42
0.00000001
 43
0.00000001
 40
0.0
 40
0.0
 40
0.0
 40
0.0
 40
0.0040452222855039
 40
0.0181603377810304
 40
0.0322892754446817
 40
0.0464359864892987
 40
0.060603027186118
 40
0.0747915285963111
 40
0.0890013248529038
 40
0.1032311935369704
 40
0.1174791524357771
 40
0.131742761073464
 40
0.1460193885411532
 40
0.1603064256892951
 40
0.1746014348922066
 40
0.1889022415950214
 40
0.2032069780323009
 40
0.2175140916115748
 40
0.2318223298243215
 40
0.2461305207445364
 40
0.2604379083637679
 40
0.2747440069074596
 40
0.2890484847577299
 40
0.3033511345815674
 40
0.3176518477036333
 40
0.331950592677892
 40
0.3462473977312937
 40
0.3605423366195563
 40
0.3748355173966494
 40
0.3891270736160107
 40
0.4034171575258629
 40
0.4177059348770029
 40
0.4319935810188908
 40
0.4462802780134563
 40
0.4605662125434373
 40
0.4748515744317915
 40
0.4891365556213789
 40
0.503421349489573
 40
0.5177061503916638
 40
0.5319911081904154
 40
0.5462763985295548
 40
0.5605622170593577
 40
0.5748487592581185
 40
0.5891362198870823
 40
0.6034247921747244
 40
0.6177146666122769
 40
0.6320060292228508
 40
0.6462990591371628
 40
0.6605939252721573
 40
0.6748907818642667
 40
0.6891897625569438
 40
0.7034909726836751
 40
0.7177944793264714
 40
0.7321002986723942
 40
0.7464083801493406
 40
0.760718586816635
 40
0.775030671548208
 40
0.7893442487223856
 40
0.8036587614893942
 40
0.81797323370263
 40
0.8322864722516329
 40
0.8465970828922043
 40
0.8609033495132868
 40
0.8752032237127952
 40
0.8894943424772221
 40
0.9037740869260463
 40
0.9180396951008268
 40
0.9322884383560083
 40
0.9465178626728146
 40
0.9607260826973272
 40
0.9749120989377046
 40
0.9890760913197332
 40
1.0
 40
1.0
 40
1.0
 40
1.0
 10
342.2895833527417
 20
8.279051110325481
 30
0.0
 10
342.1251021425101
 20
8.343380756150834
 30
0.0
 10
341.386691710247
 20
8.632177765331067
 30
0.0
 10
340.0163715336669
 20
9.027414927818153
 30
0.0
 10
338.1808786725394
 20
9.460622496498248
 30
0.0
 10
336.2895044795739
 20
9.76590517634121
 30
0.0
 10
334.3508992194419
 20
9.95383955414847
 30
0.0
 10
332.3668472068797
 20
10.02089828418569
 30
0.0
 10
330.3411885179456
 20
9.967588982005157
 30
0.0
 10
328.2774117398814
 20
9.79362250284134
 30
0.0
 10
326.1792735707368
 20
9.499239190766701
 30
0.0
 10
324.0505968322492
 20
9.084869017265628
 30
0.0
 10
321.8952866277884
 20
8.551226841106569
 30
0.0
 10
319.7172904370731
 20
7.899280800501229
 30
0.0
 10
317.5205788495832
 20
7.130247949270766
 30
0.0
 10
315.3091275464166
 20
6.245578993917908
 30
0.0
 10
313.0869054966946
 20
5.246944995906055
 30
0.0
 10
310.8578669398802
 20
4.136224376192377
 30
0.0
 10
308.6259562791823
 20
2.915497066391368
 30
0.0
 10
306.3950954973063
 20
1.58703199633782
 30
0.0
 10
304.1691779429314
 20
0.1532767498120674
 30
0.0
 10
301.9520569338936
 20
-1.383157166210819
 30
0.0
 10
299.7475535275365
 20
-3.019495317157422
 30
0.0
 10
297.559458073306
 20
-4.752802578213339
 30
0.0
 10
295.3915269141508
 20
-6.579987659547835
 30
0.0
 10
293.2474785340319
 20
-8.49780757741752
 30
0.0
 10
291.1309892089257
 20
-10.50287222471438
 30
0.0
 10
289.0456882401546
 20
-12.59164914769247
 30
0.0
 10
286.9951528563352
 20
-14.76046859779256
 30
0.0
 10
284.9829028689401
 20
-17.0055288985312
 30
0.0
 10
283.0123951604252
 20
-19.32290214602909
 30
0.0
 10
281.0870180756791
 20
-21.70854024643642
 30
0.0
 10
279.210085778797
 20
-24.1582812828574
 30
0.0
 10
277.3848326287895
 20
-26.66785619716929
 30
0.0
 10
275.6144076202712
 20
-29.23289576737776
 30
0.0
 10
273.9018689286262
 20
-31.84893785806164
 30
0.0
 10
272.2501785935592
 20
-34.51143491961289
 30
0.0
 10
270.6621973705858
 20
-37.21576171022682
 30
0.0
 10
269.1406813783865
 20
-39.9572203270728
 30
0.0
 10
267.6882760999751
 20
-42.73104974686699
 30
0.0
 10
266.3075110175005
 20
-45.532435359252
 30
0.0
 10
265.0007940611578
 20
-48.35652041168546
 30
0.0
 10
263.7704087086022
 20
-51.19841290233784
 30
0.0
 10
262.6185109641321
 20
-54.05319277996852
 30
0.0
 10
261.5471259621542
 20
-56.91592044283177
 30
0.0
 10
260.5581448764079
 20
-59.78164521668094
 30
0.0
 10
259.6533221422723
 20
-62.6454137696863
 30
0.0
 10
258.8342729952736
 20
-65.50227841779162
 30
0.0
 10
258.1024713233868
 20
-68.34730526869885
 30
0.0
 10
257.459247823156
 20
-71.17558214674777
 30
0.0
 10
256.9057884393383
 20
-73.98222623469272
 30
0.0
 10
256.4431330538729
 20
-76.76239136235246
 30
0.0
 10
256.0721743715275
 20
-79.51127486728494
 30
0.0
 10
255.7936569255678
 20
-82.22412395061862
 30
0.0
 10
255.6081760964395
 20
-84.89624145439642
 30
0.0
 10
255.5161769992604
 20
-87.52299099875812
 30
0.0
 10
255.517953052862
 20
-90.09980144342673
 30
0.0
 10
255.6136439958697
 20
-92.62217068306308
 30
0.0
 10
255.8032321389563
 20
-95.08565672534586
 30
0.0
 10
256.0865360590166
 20
-97.48588386139318
 30
0.0
 10
256.4632037680481
 20
-99.8185517852154
 30
0.0
 10
256.932707370815
 20
-102.0794505317361
 30
0.0
 10
257.494335132516
 20
-104.2644628330966
 30
0.0
 10
258.1471800814221
 20
-106.369567936032
 30
0.0
 10
258.8901309993155
 20
-108.3908510101306
 30
0.0
 10
259.7218557510851
 20
-110.3245297919227
 30
0.0
 10
260.6408192850428
 20
-112.1669397894093
 30
0.0
 10
261.6451885992416
 20
-113.9146983065591
 30
0.0
 10
262.7331870304044
 20
-115.5642237270286
 30
0.0
 10
263.9018151658962
 20
-117.1136683865314
 30
0.0
 10
265.1517028507903
 20
-118.5558596342907
 30
0.0
 10
266.3693591476792
 20
-119.8024989760323
 30
0.0
 10
267.2039980285028
 20
-120.5177770275023
 30
0.0
 10
267.5674209745865
 20
-120.8292272399317
 30
0.0
  0
LINE
  5
F8
330
1F
100
AcDbEntity
  8
0
  6
Continuous
 62
     7
370
    25
100
AcDbLine
 10
357.6575206164
 20
-0.1304772433
 30
0.0
 11
346.3438121174
 21
6.4007876513
 31
0.0
  0
LINE
  5
F9
330
1F
100
AcDbEntity
  8
0
  6
Continuous
 62
     7
370
    25
100
AcDbLine
 10
271.3499071697
 20
-123.5065417058
 30
0.0
 11
282.6636156687
 21
-130.0378066004
 31
0.0
  0
SPLINE
  5
FA
330
1F
100
AcDbEntity
  8
0
  6
Continuous
 62
     7
370
    25
100
AcDbSpline
210
0.0
220
0.0
230
1.0
 70
     8
 71
     3
 72
    62
 73
    58
 74
     0
 42
0.00000001
 43
0.00000001
 40
0.0
 40
0.0
 40
0.0
 40
0.0
 40
0.0044732085731717
 40
0.0228738096890919
 40
0.0412923838517037
 40
0.0597340950621933
 40
0.0782022900509119
 40
0.0966984570752641
 40
0.115222391773584
 40
0.1337725096796762
 40
0.1523462327917036
 40
0.1709403828219335
 40
0.1895515308162839
 40
0.2081762743817394
 40
0.2268114335370217
 40
0.2454541705895715
 40
0.2641020475431278
 40
0.2827530373172611
 40
0.3014055042582418
 40
0.3200579204356276
 40
0.338709295135643
 40
0.3573589933958573
 40
0.3760065815329559
 40
0.3946517881602931
 40
0.4132944707371347
 40
0.4319345875937665
 40
0.4505721750083553
 40
0.4692073287367727
 40
0.4878401893457379
 40
0.5064709307205849
 40
0.5250997511767062
 40
0.5437268666765338
 40
0.5623525057289004
 40
0.5809769056176363
 40
0.5996003096678414
 40
0.6182229653105252
 40
0.6368451227485417
 40
0.655467034060329
 40
0.6740889526028915
 40
0.6927110743813913
 40
0.7113336277180327
 40
0.7299568676655719
 40
0.7485810490570288
 40
0.7672064257972412
 40
0.7858332498027328
 40
0.8044617694360521
 40
0.8230922272553803
 40
0.8417248568620429
 40
0.8603598785807866
 40
0.8789974936496531
 40
0.8976378765284446
 40
0.9162811648586615
 40
0.9349274465279932
 40
0.9535767432174894
 40
0.9722289897553567
 40
0.9908840085935632
 40
0.9999999999999999
 40
0.9999999999999999
 40
0.9999999999999999
 40
0.9999999999999999
 10
286.7796677516131
 20
-131.9400281337576
 30
0.0
 10
286.9192073487519
 20
-131.9945579306714
 30
0.0
 10
287.6327448770906
 20
-132.2733967499638
 30
0.0
 10
288.977424187994
 20
-132.6603006831615
 30
0.0
 10
290.8122501550631
 20
-133.0949497974522
 30
0.0
 10
292.7033128229342
 20
-133.4010007984509
 30
0.0
 10
294.641541712625
 20
-133.5898903212397
 30
0.0
 10
296.6252669398476
 20
-133.6578583965747
 30
0.0
 10
298.6506193009658
 20
-133.6054730536677
 30
0.0
 10
300.7141194762773
 20
-133.4324266097606
 30
0.0
 10
302.8120094778595
 20
-133.1389618992073
 30
0.0
 10
304.9404677403761
 20
-132.7255056610222
 30
0.0
 10
307.0955894467093
 20
-132.1927710692236
 30
0.0
 10
309.2734274107045
 20
-131.5417242380309
 30
0.0
 10
311.4700111307966
 20
-130.7735804038537
 30
0.0
 10
313.6813649177045
 20
-129.8897885323327
 30
0.0
 10
315.9035197152298
 20
-128.8920180549502
 30
0.0
 10
318.1325211496742
 20
-127.7821458533743
 30
0.0
 10
320.3644247465922
 20
-126.5622503454611
 30
0.0
 10
322.5953083118021
 20
-125.2345990648116
 30
0.0
 10
324.8212782718056
 20
-123.8016382598202
 30
0.0
 10
327.0384809798554
 20
-122.2659782264826
 30
0.0
 10
329.2430951552889
 20
-120.6303921542023
 30
0.0
 10
331.4313302023651
 20
-118.897813957887
 30
0.0
 10
333.599429504494
 20
-117.0713337515886
 30
0.0
 10
335.7436742726786
 20
-115.154193377632
 30
0.0
 10
337.8603878910013
 20
-113.149781837285
 30
0.0
 10
339.9459406804276
 20
-111.0616305159101
 30
0.0
 10
341.9967549946542
 20
-108.8934081334238
 30
0.0
 10
344.0093105629749
 20
-106.6489153799072
 30
0.0
 10
345.9801500011533
 20
-104.3320792176541
 30
0.0
 10
347.9058844194809
 20
-101.9469468463024
 30
0.0
 10
349.7831990659529
 20
-99.49767933837653
 30
0.0
 10
351.608858950886
 20
-96.98854495980707
 30
0.0
 10
353.3797144068847
 20
-94.42391219474823
 30
0.0
 10
355.0927065446073
 20
-91.80824249713011
 30
0.0
 10
356.7448725703902
 20
-89.14608279322245
 30
0.0
 10
358.3333509361401
 20
-86.44205776124429
 30
0.0
 10
359.8553847106107
 20
-83.70086476959776
 30
0.0
 10
361.3083275421378
 20
-80.9272643999646
 30
0.0
 10
362.6896490460078
 20
-78.12607088530379
 30
0.0
 10
363.9969403446076
 20
-75.30214069859053
 30
0.0
 10
365.2279170003522
 20
-72.46036559487618
 30
0.0
 10
366.3804220229209
 20
-69.60566544293253
 30
0.0
 10
367.4524292633726
 20
-66.7429797290637
 30
0.0
 10
368.4420465248832
 20
-63.87725906863442
 30
0.0
 10
369.3475182771834
 20
-61.01345682839031
 30
0.0
 10
370.1672283655624
 20
-58.15652067864925
 30
0.0
 10
370.8997012460604
 20
-55.31138497577633
 30
0.0
 10
371.5436072466361
 20
-52.48296086484901
 30
0.0
 10
372.0977513818245
 20
-49.67613599119683
 30
0.0
 10
372.5611222514382
 20
-46.89573975063536
 30
0.0
 10
372.9327155214802
 20
-44.14663892437944
 30
0.0
 10
373.2121980191984
 20
-41.43334869558473
 30
0.0
 10
373.3974334006485
 20
-38.76145517796163
 30
0.0
 10
373.4773068145174
 20
-36.58052924583766
 30
0.0
 10
373.484205438064
 20
-35.2980295677362
 30
0.0
 10
373.4864699503165
 20
-34.87704178438446
 30
0.0
  0
SPLINE
  5
FB
330
1F
100
AcDbEntity
  8
0
  6
Continuous
 62
     7
370
    25
100
AcDbSpline
210
0.0
220
0.0
230
1.0
 70
     8
 71
     3
 72
    24
 73
    20
 74
     0
 42
0.00000001
 43
0.00000001
 40
0.0
 40
0.0
 40
0.0
 40
0.0
 40
0.0323231640139599
 40
0.0936810758559974
 40
0.1550477854445961
 40
0.2164142820166689
 40
0.277775449150501
 40
0.3391252995252946
 40
0.4004564652964269
 40
0.4617601541346326
 40
0.5230262261458184
 40
0.5842434472761856
 40
0.6453999747999711
 40
0.7064841156753502
 40
0.7674853630751944
 40
0.8283956582748135
 40
0.8892107505553587
 40
0.9499314539881217
 40
1.0
 40
1.0
 40
1.0
 40
1.0
 10
373.4864699503165
 20
-34.87704178438446
 30
0.0
 10
373.4838499771197
 20
-34.42595281687871
 30
0.0
 10
373.4762566020501
 20
-33.11857771695161
 30
0.0
 10
373.3918938755234
 20
-30.9961696397557
 30
0.0
 10
373.2025991004984
 20
-28.5326698882596
 30
0.0
 10
372.91831123589
 20
-26.13308849667456
 30
0.0
 10
372.541004410187
 20
-23.80091378506178
 30
0.0
 10
372.070774932009
 20
-21.54058961890867
 30
0.0
 10
371.5084519791973
 20
-19.35616969625133
 30
0.0
 10
370.8549129540308
 20
-17.25169087893206
 30
0.0
 10
370.1112791235549
 20
-15.23106243838565
 30
0.0
 10
369.2788816368987
 20
-13.29806743613869
 30
0.0
 10
368.3592594880369
 20
-11.45636650485161
 30
0.0
 10
367.3542411455076
 20
-9.709349620395928
 30
0.0
 10
366.2656275558843
 20
-8.060564542401409
 30
0.0
 10
365.0963353052855
 20
-6.511976803899401
 30
0.0
 10
363.8460495002984
 20
-5.070311061046481
 30
0.0
 10
362.6037517672693
 20
-3.801441917725162
 30
0.0
 10
361.7433508093758
 20
-3.065571049729217
 30
0.0
 10
361.3545132175977
 20
-2.733011847480385
 30
0.0
  0
SPLINE
  5
FC
330
1F
100
AcDbEntity
  8
0
  6
Continuous
 62
     7
370
    25
100
AcDbSpline
210
0.0
220
0.0
230
1.0
 70
     8
 71
     3
 72
    14
 73
    10
 74
     0
 42
0.00000001
 43
0.00000001
 40
0.0
 40
0.0
 40
0.0
 40
0.0
 40
0.1117306749672946
 40
0.2845246052036135
 40
0.4324467643337503
 40
0.5895930848061965
 40
0.742138414025568
 40
0.8925403208983671
 40
0.9999999999999999
 40
0.9999999999999999
 40
0.9999999999999999
 40
0.9999999999999999
 10
352.2436962792759
 20
-28.32689944455585
 30
0.0
 10
352.3461341843175
 20
-28.38664874890078
 30
0.0
 10
352.6069945478513
 20
-28.53880165798243
 30
0.0
 10
352.9402562681234
 20
-28.89469843685267
 30
0.0
 10
353.2649186253201
 20
-29.3867119145203
 30
0.0
 10
353.5168156665653
 20
-29.96766181753957
 30
0.0
 10
353.6982583213184
 20
-30.65480273997039
 30
0.0
 10
353.7942278056693
 20
-31.34465526939615
 30
0.0
 10
353.8045138688396
 20
-31.82107366837624
 30
0.0
 10
353.8088004206474
 20
-32.01961339300816
 30
0.0
  0
SPLINE
  5
FD
330
1F
100
AcDbEntity
  8
0
  6
Continuous
 62
     7
370
    25
100
AcDbSpline
210
0.0
220
0.0
230
1.0
 70
     8
 71
     3
 72
    28
 73
    24
 74
     0
 42
0.00000001
 43
0.00000001
 40
0.0
 40
0.0
 40
0.0
 40
0.0
 40
0.025549932821679
 40
0.0745573555125234
 40
0.1237119757537892
 40
0.1730154098694578
 40
0.2224577912999782
 40
0.27201072909865
 40
0.3216376850747051
 40
0.3712988458856277
 40
0.4209501936249365
 40
0.4705392847522519
 40
0.5200244882083205
 40
0.5693655677759764
 40
0.6185272374385727
 40
0.6674870416897849
 40
0.7162510574658341
 40
0.7648829771162401
 40
0.813511608485841
 40
0.8623993856735461
 40
0.9120877255683094
 40
0.9634479773639493
 40
1.0
 40
1.0
 40
1.0
 40
1.0
 10
353.8088004206474
 20
-32.01961339300814
 30
0.0
 10
353.8064938830348
 20
-32.16783886342918
 30
0.0
 10
353.7997631669115
 20
-32.60037616876465
 30
0.0
 10
353.7236961161158
 20
-33.36156748281993
 30
0.0
 10
353.5511177760706
 20
-34.30611669243454
 30
0.0
 10
353.2919031132576
 20
-35.28016391665159
 30
0.0
 10
352.950115615008
 20
-36.26754673172923
 30
0.0
 10
352.5296056478874
 20
-37.25335175710424
 30
0.0
 10
352.036273157754
 20
-38.22226243165928
 30
0.0
 10
351.4773243883278
 20
-39.15935642446919
 30
0.0
 10
350.8613498105644
 20
-40.05019728010417
 30
0.0
 10
350.1981218689639
 20
-40.88120522353653
 30
0.0
 10
349.4984550062211
 20
-41.63992127153649
 30
0.0
 10
348.7740150098595
 20
-42.31530092865404
 30
0.0
 10
348.0372034003133
 20
-42.89793711174797
 30
0.0
 10
347.3009253991779
 20
-43.38040112709561
 30
0.0
 10
346.5782593073301
 20
-43.75757086118405
 30
0.0
 10
345.8820058183111
 20
-44.02702699228603
 30
0.0
 10
345.2242170595086
 20
-44.18883128298945
 30
0.0
 10
344.6134801746725
 20
-44.24733866360689
 30
0.0
 10
344.0567701174769
 20
-44.20273570190302
 30
0.0
 10
343.5998784619058
 20
-44.08870358908523
 30
0.0
 10
343.3526311663418
 20
-43.9468253296772
 30
0.0
 10
343.2498310874839
 20
-43.88783541748381
 30
0.0
  0
SPLINE
  5
FE
330
1F
100
AcDbEntity
  8
0
  6
Continuous
 62
     7
370
    25
100
AcDbSpline
210
0.0
220
0.0
230
1.0
 70
     8
 71
     3
 72
    14
 73
    10
 74
     0
 42
0.00000001
 43
0.00000001
 40
0.0
 40
0.0
 40
0.0
 40
0.0
 40
0.1117306749673113
 40
0.2845246052036343
 40
0.4324467643337802
 40
0.5895930848062173
 40
0.7421384140255922
 40
0.8925403208983845
 40
1.0
 40
1.0
 40
1.0
 40
1.0
 10
313.3528233140159
 20
-95.68786717339032
 30
0.0
 10
313.4552612190575
 20
-95.74761647773525
 30
0.0
 10
313.7161215825913
 20
-95.89976938681694
 30
0.0
 10
314.0493833028634
 20
-96.25566616568719
 30
0.0
 10
314.3740456600602
 20
-96.74767964335484
 30
0.0
 10
314.6259427013053
 20
-97.32862954637415
 30
0.0
 10
314.8073853560584
 20
-98.01577046880493
 30
0.0
 10
314.9033548404093
 20
-98.7056229982307
 30
0.0
 10
314.9136409035796
 20
-99.18204139721074
 30
0.0
 10
314.9179274553873
 20
-99.38058112184261
 30
0.0
  0
SPLINE
  5
FF
330
1F
100
AcDbEntity
  8
0
  6
Continuous
 62
     7
370
    25
100
AcDbSpline
210
0.0
220
0.0
230
1.0
 70
     8
 71
     3
 72
    28
 73
    24
 74
     0
 42
0.00000001
 43
0.00000001
 40
0.0
 40
0.0
 40
0.0
 40
0.0
 40
0.0255499328216791
 40
0.0745573555125321
 40
0.1237119757537969
 40
0.1730154098694657
 40
0.2224577912999864
 40
0.2720107290986601
 40
0.3216376850747099
 40
0.3712988458856329
 40
0.4209501936249408
 40
0.4705392847522599
 40
0.5200244882083243
 40
0.5693655677759807
 40
0.6185272374385798
 40
0.6674870416897905
 40
0.716251057465834
 40
0.7648829771162432
 40
0.813511608485845
 40
0.8623993856735509
 40
0.9120877255683166
 40
0.9634479773639533
 40
1.0
 40
1.0
 40
1.0
 40
1.0
 10
314.9179274553873
 20
-99.38058112184261
 30
0.0
 10
314.9156209177747
 20
-99.52880659226365
 30
0.0
 10
314.9088902016514
 20
-99.96134389759919
 30
0.0
 10
314.8328231508557
 20
-100.7225352116545
 30
0.0
 10
314.6602448108105
 20
-101.6670844212692
 30
0.0
 10
314.4010301479975
 20
-102.6411316454862
 30
0.0
 10
314.0592426497479
 20
-103.6285144605639
 30
0.0
 10
313.6387326826273
 20
-104.6143194859389
 30
0.0
 10
313.1454001924938
 20
-105.5832301604939
 30
0.0
 10
312.5864514230677
 20
-106.5203241533038
 30
0.0
 10
311.9704768453043
 20
-107.4111650089387
 30
0.0
 10
311.3072489037038
 20
-108.2421729523711
 30
0.0
 10
310.6075820409609
 20
-109.000889000371
 30
0.0
 10
309.8831420445993
 20
-109.6762686574886
 30
0.0
 10
309.1463304350532
 20
-110.2589048405825
 30
0.0
 10
308.4100524339178
 20
-110.7413688559301
 30
0.0
 10
307.6873863420701
 20
-111.1185385900185
 30
0.0
 10
306.991132853051
 20
-111.3879947211205
 30
0.0
 10
306.3333440942484
 20
-111.5497990118239
 30
0.0
 10
305.7226072094124
 20
-111.6083063924414
 30
0.0
 10
305.1658971522168
 20
-111.5637034307374
 30
0.0
 10
304.7090054966458
 20
-111.4496713179197
 30
0.0
 10
304.4617582010818
 20
-111.3077930585116
 30
0.0
 10
304.3589581222238
 20
-111.2488031463183
 30
0.0
  0
SPLINE
  5
100
330
1F
100
AcDbEntity
  8
0
  6
Continuous
 62
     7
370
    25
100
AcDbSpline
210
0.0
220
0.0
230
1.0
 70
     8
 71
     3
 72
    18
 73
    14
 74
     0
 42
0.00000001
 43
0.00000001
 40
0.0
 40
0.0
 40
0.0
 40
0.0
 40
0.0897602101875906
 40
0.1873962620315669
 40
0.2844097342065726
 40
0.3807875507981009
 40
0.4766079989345736
 40
0.5719901557859177
 40
0.6670573301497893
 40
0.7619176291829035
 40
0.8566569564461542
 40
0.9513389816541358
 40
1.0
 40
1.0
 40
1.0
 40
1.0
 10
325.7738573693756
 20
-32.71763527069744
 30
0.0
 10
326.0345772604492
 20
-32.94942864489776
 30
0.0
 10
326.5788934215005
 20
-33.43335366911557
 30
0.0
 10
327.3182254538892
 20
-34.30378219979768
 30
0.0
 10
328.0073768694448
 20
-35.29148409613985
 30
0.0
 10
328.6145244469247
 20
-36.37831169176911
 30
0.0
 10
329.1397598801616
 20
-37.55625503775656
 30
0.0
 10
329.5809419345699
 20
-38.82151621729381
 30
0.0
 10
329.9365849328287
 20
-40.16917979897718
 30
0.0
 10
330.2056341784541
 20
-41.59402501251723
 30
0.0
 10
330.3852815883625
 20
-43.09151373388521
 30
0.0
 10
330.4648023378229
 20
-44.39958703578835
 30
0.0
 10
330.4718754982068
 20
-45.2139077623234
 30
0.0
 10
330.4742766414968
 20
-45.49034723807972
 30
0.0
  0
SPLINE
  5
101
330
1F
100
AcDbEntity
  8
0
  6
Continuous
 62
     7
370
    25
100
AcDbSpline
210
0.0
220
0.0
230
1.0
 70
     8
 71
     3
 72
    43
 73
    39
 74
     0
 42
0.00000001
 43
0.00000001
 40
0.0
 40
0.0
 40
0.0
 40
0.0
 40
0.0148863702099918
 40
0.0432653184573129
 40
0.0716588036232135
 40
0.1000648167907046
 40
0.1284849255253021
 40
0.1569193568773835
 40
0.1853674363401443
 40
0.2138278996265525
 40
0.2422991073923753
 40
0.2707791891917789
 40
0.2992661370061589
 40
0.327757863610286
 40
0.3562522370686438
 40
0.3847470997438658
 40
0.413239707683196
 40
0.441727726583627
 40
0.4702089751285625
 40
0.4986812876480699
 40
0.5271425426328217
 40
0.5555907122953169
 40
0.5840239434931873
 40
0.61244068404698
 40
0.6408398732503655
 40
0.6692212210952024
 40
0.6975856067350233
 40
0.7259356311724274
 40
0.7542763580803883
 40
0.7826148444472556
 40
0.810960711579444
 40
0.8393307285215377
 40
0.8677481090937285
 40
0.8962430084725089
 40
0.9248515616345448
 40
0.9536121620716459
 40
0.9825575281972307
 40
1.0
 40
1.0
 40
1.0
 40
1.0
 10
330.4742766414968
 20
-45.49034723807972
 30
0.0
 10
330.4717798049072
 20
-45.77551354851598
 30
0.0
 10
330.4645230708167
 20
-46.60431271582678
 30
0.0
 10
330.3835966256966
 20
-48.0178128335553
 30
0.0
 10
330.2015862414954
 20
-49.74015595388708
 30
0.0
 10
329.9283519785076
 20
-51.50172917639784
 30
0.0
 10
329.5663024871131
 20
-53.29388792783877
 30
0.0
 10
329.116294320203
 20
-55.10919996834161
 30
0.0
 10
328.5801315929023
 20
-56.93976287828562
 30
0.0
 10
327.9598888829938
 20
-58.77768599239204
 30
0.0
 10
327.258078344346
 20
-60.61501746142624
 30
0.0
 10
326.477587522338
 20
-62.44381627697676
 30
0.0
 10
325.6216766898964
 20
-64.25618230903999
 30
0.0
 10
324.6939588503826
 20
-66.04429514126464
 30
0.0
 10
323.6983833583355
 20
-67.80044863520891
 30
0.0
 10
322.63922478681
 20
-69.51707372547811
 30
0.0
 10
321.5210611574654
 20
-71.18678151778654
 30
0.0
 10
320.3487527208156
 20
-72.80240010510168
 30
0.0
 10
319.1274129413712
 20
-74.35701726091912
 30
0.0
 10
317.8623923466903
 20
-75.84400363220833
 30
0.0
 10
316.5592587558068
 20
-77.25704175635522
 30
0.0
 10
315.2237741668566
 20
-78.59015817476383
 30
0.0
 10
313.8618698275103
 20
-79.8377557820945
 30
0.0
 10
312.4796188025545
 20
-80.99464645352056
 30
0.0
 10
311.0832050650596
 20
-82.05608384070709
 30
0.0
 10
309.6788878139437
 20
-83.01779587453595
 30
0.0
 10
308.2729592662135
 20
-83.87601609892151
 30
0.0
 10
306.8716941446801
 20
-84.62751151145024
 30
0.0
 10
305.4813111038156
 20
-85.26959446156384
 30
0.0
 10
304.1079318279209
 20
-85.80012676739202
 30
0.0
 10
302.7574597292703
 20
-86.21755578398579
 30
0.0
 10
301.4354891767973
 20
-86.52084141680506
 30
0.0
 10
300.1470781716504
 20
-86.70957184957275
 30
0.0
 10
298.8970769909797
 20
-86.78312378722819
 30
0.0
 10
297.6886623904011
 20
-86.74313739626626
 30
0.0
 10
296.5288052406733
 20
-86.58337921625886
 30
0.0
 10
295.5591840098593
 20
-86.3615590146951
 30
0.0
 10
295.0020858368127
 20
-86.14696150431605
 30
0.0
 10
294.7926091806739
 20
-86.06626985773593
 30
0.0
  0
SPLINE
  5
102
330
1F
100
AcDbEntity
  8
0
  6
Continuous
 62
     7
370
    25
100
AcDbSpline
210
0.0
220
0.0
230
1.0
 70
     8
 71
     3
 72
    45
 73
    41
 74
     0
 42
0.00000001
 43
0.00000001
 40
0.0
 40
0.0
 40
0.0
 40
0.0
 40
0.0012240901613304
 40
0.0287796726296425
 40
0.0562276501900806
 40
0.0836017315319394
 40
0.1109298546894854
 40
0.1382333839707084
 40
0.1655276709821323
 40
0.1928212567385272
 40
0.2201207620220136
 40
0.2474308342816783
 40
0.274753871740636
 40
0.3020907008875598
 40
0.3294410786983821
 40
0.3568040528147741
 40
0.3841782129548693
 40
0.4115618618900495
 40
0.4389531284462546
 40
0.466350039615225
 40
0.4937505644845153
 40
0.5211526393802012
 40
0.5485539935533056
 40
0.5759520245226492
 40
0.603344633081138
 40
0.630729726356976
 40
0.6581052376812012
 40
0.6854691627046093
 40
0.7128196201226386
 40
0.740154948543317
 40
0.7674738550647106
 40
0.7947756361940304
 40
0.8220604975050502
 40
0.8493300038069134
 40
0.8765876939912923
 40
0.903839888741367
 40
0.9310933216235796
 40
0.9583608923739668
 40
0.9856615968848139
 40
1.0
 40
1.0
 40
1.0
 40
1.0
 10
300.1473206873051
 20
-86.69067060677413
 30
0.0
 10
300.1389875149785
 20
-86.67400179892273
 30
0.0
 10
299.9430656955748
 20
-86.28210024767738
 30
0.0
 10
299.6337516475143
 20
-85.42773943134713
 30
0.0
 10
299.2296074841063
 20
-84.1278503467716
 30
0.0
 10
298.9207451069086
 20
-82.73708546033312
 30
0.0
 10
298.6970688230362
 20
-81.27467407966189
 30
0.0
 10
298.5628195690581
 20
-79.74254345307263
 30
0.0
 10
298.5180990866181
 20
-78.14783418569571
 30
0.0
 10
298.563706257734
 20
-76.49684105038799
 30
0.0
 10
298.6997754400006
 20
-74.79655059561678
 30
0.0
 10
298.9261109821078
 20
-73.05411494447192
 30
0.0
 10
299.2420813870477
 20
-71.27694966340937
 30
0.0
 10
299.646636156522
 20
-69.47267001485363
 30
0.0
 10
300.1382998233915
 20
-67.64904630153221
 30
0.0
 10
300.7151804469892
 20
-65.81395255471276
 30
0.0
 10
301.3749797155203
 20
-63.97532172988515
 30
0.0
 10
302.1150062430837
 20
-62.14110335269457
 30
0.0
 10
302.9321904162911
 20
-60.3192239950544
 30
0.0
 10
303.8231004674069
 20
-58.51754978202238
 30
0.0
 10
304.7839594030141
 20
-56.74385053635911
 30
0.0
 10
305.8106602858895
 20
-55.005769135753
 30
0.0
 10
306.8987794669004
 20
-53.31079390611421
 30
0.0
 10
308.0436007131216
 20
-51.66621356175244
 30
0.0
 10
309.240138186977
 20
-50.07908049778406
 30
0.0
 10
310.4831628248485
 20
-48.55617337443431
 30
0.0
 10
311.7672168295001
 20
-47.10397557127904
 30
0.0
 10
313.0866360257847
 20
-45.72864317765305
 30
0.0
 10
314.4355738071259
 20
-44.43597269250589
 30
0.0
 10
315.8080270535701
 20
-43.23136885339264
 30
0.0
 10
317.197865517475
 20
-42.11981072967659
 30
0.0
 10
318.5988632648951
 20
-41.10582334444232
 30
0.0
 10
320.0047431371721
 20
-40.19342931404928
 30
0.0
 10
321.4092007805937
 20
-39.38617947483774
 30
0.0
 10
322.8060420154613
 20
-38.6869010753665
 30
0.0
 10
324.1888872835906
 20
-38.0985493970013
 30
0.0
 10
325.5524156885571
 20
-37.62102365165471
 30
0.0
 10
326.8882079762763
 20
-37.2629314234266
 30
0.0
 10
327.9921846053052
 20
-37.03984413579381
 30
0.0
 10
328.6330109824914
 20
-36.98080554555226
 30
0.0
 10
328.8536791823352
 20
-36.96047564045828
 30
0.0
  0
SPLINE
  5
103
330
1F
100
AcDbEntity
  8
0
  6
Continuous
 62
     7
370
    25
100
AcDbSpline
210
0.0
220
0.0
230
1.0
 70
     8
 71
     3
 72
    14
 73
    10
 74
     0
 42
0.00000001
 43
0.00000001
 40
0.0
 40
0.0
 40
0.0
 40
0.0
 40
0.1117306749672928
 40
0.2845246052036161
 40
0.4324467643337619
 40
0.5895930848061989
 40
0.7421384140255756
 40
0.8925403208983652
 40
1.0
 40
1.0
 40
1.0
 40
1.0
 10
313.3528233140213
 20
-5.868377865960992
 30
0.0
 10
313.4552612190629
 20
-5.928127170305928
 30
0.0
 10
313.7161215825967
 20
-6.080280079387587
 30
0.0
 10
314.0493833028688
 20
-6.436176858257807
 30
0.0
 10
314.3740456600656
 20
-6.928190335925476
 30
0.0
 10
314.6259427013107
 20
-7.509140238944736
 30
0.0
 10
314.8073853560638
 20
-8.196281161375545
 30
0.0
 10
314.9033548404147
 20
-8.88613369080133
 30
0.0
 10
314.913640903585
 20
-9.362552089781387
 30
0.0
 10
314.9179274553928
 20
-9.5610918144133
 30
0.0
  0
SPLINE
  5
104
330
1F
100
AcDbEntity
  8
0
  6
Continuous
 62
     7
370
    25
100
AcDbSpline
210
0.0
220
0.0
230
1.0
 70
     8
 71
     3
 72
    28
 73
    24
 74
     0
 42
0.00000001
 43
0.00000001
 40
0.0
 40
0.0
 40
0.0
 40
0.0
 40
0.0255499328216791
 40
0.0745573555125321
 40
0.1237119757537968
 40
0.1730154098694657
 40
0.2224577912999864
 40
0.27201072909866
 40
0.3216376850747098
 40
0.371298845885633
 40
0.4209501936249415
 40
0.4705392847522579
 40
0.520024488208325
 40
0.569365567775981
 40
0.6185272374385776
 40
0.6674870416897905
 40
0.7162510574658414
 40
0.7648829771162452
 40
0.8135116084858466
 40
0.8623993856735497
 40
0.9120877255683121
 40
0.9634479773639532
 40
1.0
 40
1.0
 40
1.0
 40
1.0
 10
314.9179274553928
 20
-9.561091814413308
 30
0.0
 10
314.9156209177801
 20
-9.709317284834345
 30
0.0
 10
314.9088902016569
 20
-10.14185459016988
 30
0.0
 10
314.8328231508612
 20
-10.90304590422519
 30
0.0
 10
314.6602448108159
 20
-11.84759511383984
 30
0.0
 10
314.4010301480029
 20
-12.82164233805691
 30
0.0
 10
314.0592426497534
 20
-13.80902515313456
 30
0.0
 10
313.6387326826327
 20
-14.79483017850958
 30
0.0
 10
313.1454001924993
 20
-15.76374085306459
 30
0.0
 10
312.5864514230731
 20
-16.70083484587446
 30
0.0
 10
311.9704768453097
 20
-17.59167570150941
 30
0.0
 10
311.3072489037093
 20
-18.42268364494181
 30
0.0
 10
310.6075820409664
 20
-19.18139969294171
 30
0.0
 10
309.8831420446048
 20
-19.85677935005931
 30
0.0
 10
309.1463304350586
 20
-20.43941553315321
 30
0.0
 10
308.4100524339232
 20
-20.92187954850083
 30
0.0
 10
307.6873863420755
 20
-21.29904928258927
 30
0.0
 10
306.9911328530564
 20
-21.56850541369122
 30
0.0
 10
306.3333440942539
 20
-21.73030970439463
 30
0.0
 10
305.7226072094178
 20
-21.78881708501204
 30
0.0
 10
305.1658971522223
 20
-21.74421412330816
 30
0.0
 10
304.7090054966512
 20
-21.63018201049038
 30
0.0
 10
304.4617582010872
 20
-21.48830375108233
 30
0.0
 10
304.3589581222292
 20
-21.42931383888896
 30
0.0
  0
SPLINE
  5
105
330
1F
100
AcDbEntity
  8
0
  6
Continuous
 62
     7
370
    25
100
AcDbSpline
210
0.0
220
0.0
230
1.0
 70
     8
 71
     3
 72
    14
 73
    10
 74
     0
 42
0.00000001
 43
0.00000001
 40
0.0
 40
0.0
 40
0.0
 40
0.0
 40
0.1117306749672591
 40
0.2845246052035819
 40
0.4324467643337269
 40
0.5895930848061619
 40
0.7421384140255384
 40
0.8925403208983266
 40
1.0
 40
1.0
 40
1.0
 40
1.0
 10
274.4619503487613
 20
-73.22934559479548
 30
0.0
 10
274.5643882538028
 20
-73.28909489914038
 30
0.0
 10
274.8252486173365
 20
-73.44124780822202
 30
0.0
 10
275.1585103376087
 20
-73.7971445870922
 30
0.0
 10
275.4831726948054
 20
-74.28915806475982
 30
0.0
 10
275.7350697360505
 20
-74.87010796777908
 30
0.0
 10
275.9165123908037
 20
-75.55724889020985
 30
0.0
 10
276.0124818751547
 20
-76.24710141963567
 30
0.0
 10
276.022767938325
 20
-76.72351981861578
 30
0.0
 10
276.0270544901327
 20
-76.9220595432478
 30
0.0
  0
SPLINE
  5
106
330
1F
100
AcDbEntity
  8
0
  6
Continuous
 62
     7
370
    25
100
AcDbSpline
210
0.0
220
0.0
230
1.0
 70
     8
 71
     3
 72
    28
 73
    24
 74
     0
 42
0.00000001
 43
0.00000001
 40
0.0
 40
0.0
 40
0.0
 40
0.0
 40
0.0255499328216791
 40
0.0745573555125329
 40
0.1237119757537977
 40
0.1730154098694655
 40
0.2224577912999847
 40
0.2720107290986583
 40
0.3216376850747094
 40
0.3712988458856306
 40
0.4209501936249371
 40
0.4705392847522539
 40
0.5200244882083231
 40
0.5693655677759788
 40
0.6185272374385765
 40
0.667487041689789
 40
0.7162510574658372
 40
0.7648829771162443
 40
0.8135116084858466
 40
0.86239938567355
 40
0.9120877255683132
 40
0.9634479773639528
 40
1.0
 40
1.0
 40
1.0
 40
1.0
 10
276.0270544901327
 20
-76.9220595432478
 30
0.0
 10
276.0247479525201
 20
-77.07028501366881
 30
0.0
 10
276.0180172363969
 20
-77.50282231900435
 30
0.0
 10
275.9419501856011
 20
-78.26401363305968
 30
0.0
 10
275.7693718455559
 20
-79.20856284267433
 30
0.0
 10
275.5101571827428
 20
-80.18261006689137
 30
0.0
 10
275.1683696844933
 20
-81.16999288196902
 30
0.0
 10
274.7478597173727
 20
-82.15579790734401
 30
0.0
 10
274.2545272272392
 20
-83.12470858189901
 30
0.0
 10
273.695578457813
 20
-84.06180257470886
 30
0.0
 10
273.0796038800498
 20
-84.95264343034383
 30
0.0
 10
272.4163759384493
 20
-85.7836513737762
 30
0.0
 10
271.7167090757064
 20
-86.54236742177615
 30
0.0
 10
270.9922690793447
 20
-87.21774707889374
 30
0.0
 10
270.2554574697986
 20
-87.80038326198765
 30
0.0
 10
269.5191794686632
 20
-88.28284727733528
 30
0.0
 10
268.7965133768154
 20
-88.66001701142373
 30
0.0
 10
268.1002598877964
 20
-88.9294731425257
 30
0.0
 10
267.4424711289939
 20
-89.0912774332291
 30
0.0
 10
266.8317342441579
 20
-89.14978481384654
 30
0.0
 10
266.2750241869622
 20
-89.10518185214264
 30
0.0
 10
265.8181325313912
 20
-88.99114973932487
 30
0.0
 10
265.5708852358272
 20
-88.84927147991684
 30
0.0
 10
265.4680851569692
 20
-88.79028156772345
 30
0.0
  0
LWPOLYLINE
  5
107
330
1F
100
AcDbEntity
  8
0
  6
Continuous
 62
     7
370
    25
100
AcDbPolyline
 90
      142
 70
   128
 43
0.0
 10
360.4656546701
 20
-27.9375728339
 10
360.4137105529
 20
-25.2758596875
 10
360.2579813313
 20
-22.6794045273
 10
359.9987761915
 20
-20.1533623748
 10
359.6366097611
 20
-17.7027484529
 10
359.1722010881
 20
-15.3324282286
 10
358.6064722129
 20
-13.0471077534
 10
357.9405463379
 20
-10.8513243195
 10
357.1757455972
 20
-8.7494374516
 10
356.3135884319
 20
-6.7456202517
 10
355.3557865753
 20
-4.8438511131
 10
354.3042416543
 20
-3.0479058227
 10
353.161041414
 20
-1.3613500634
 10
351.9284555726
 20
0.2124676644
 10
350.6089313153
 20
1.6704226913
 10
349.2050884353
 20
3.0096203824
 10
347.7197141326
 20
4.2274018848
 10
346.1557574806
 20
5.321349406
 10
344.5163235704
 20
6.2892910145
 10
342.8046673462
 20
7.1293049518
 10
341.024187143
 20
7.839723448
 10
339.1784179394
 20
8.4191360328
 10
337.2710243395
 20
8.8663923364
 10
335.3057932965
 20
9.1806043726
 10
333.2866265949
 20
9.3611483025
 10
331.2175331031
 20
9.407665673
 10
329.1026208149
 20
9.320064128
 10
326.9460886928
 20
9.0985175924
 10
324.7522183317
 20
8.7434659262
 10
322.5253654581
 20
8.2556140517
 10
320.2699512823
 20
7.6359305536
 10
317.9904537204
 20
6.8856457561
 10
315.6913985037
 20
6.0062492803
 10
313.3773501936
 20
4.9994870865
 10
311.0529031189
 20
3.8673580078
 10
308.722672254
 20
2.6121097816
 10
306.3912840565
 20
1.2362345873
 10
304.0633672821
 20
-0.2575359025
 10
301.7435437938
 20
-1.8662359446
 10
299.4364193867
 20
-3.5866716141
 10
297.1465746425
 20
-5.4154271451
 10
294.8785558361
 20
-7.3488717129
 10
292.6368659089
 20
-9.3831666422
 10
290.4259555287
 20
-11.5142730287
 10
288.2502142534
 20
-13.737959758
 10
286.113961816
 20
-16.0498119059
 10
284.0214395479
 20
-18.4452395039
 10
281.9768019584
 20
-20.9194866524
 10
279.9841084862
 20
-23.4676409625
 10
278.0473154397
 20
-26.0846433099
 10
276.1702681421
 20
-28.7652978785
 10
274.3566932973
 20
-31.5042824769
 10
272.6101915901
 20
-34.2961591047
 10
270.934230538
 20
-37.1353847492
 10
269.3321376067
 20
-40.0163223908
 10
267.8070936032
 20
-42.9332521944
 10
266.3621263612
 20
-45.8803828659
 10
265.0001047296
 20
-48.8518631503
 10
263.7237328762
 20
-51.8417934483
 10
262.5355449191
 20
-54.8442375302
 10
261.4378998955
 20
-57.8532343211
 10
260.4329770781
 20
-60.8628097365
 10
259.522771648
 20
-63.866988543
 10
258.709090734
 20
-66.8598062216
 10
257.9935498241
 20
-69.8353208098
 10
257.3775695585
 20
-72.7876246989
 10
256.8623729092
 20
-75.7108563628
 10
256.4489827513
 20
-78.5992119955
 10
256.1382198327
 20
-81.4469570343
 10
255.9307011444
 20
-84.2484375451
 10
255.8268386957
 20
-86.9980914477
 10
255.8268386957
 20
-89.6904595586
 10
255.9307011444
 20
-92.3201964303
 10
256.1382198327
 20
-94.8820809636
 10
256.4489827513
 20
-97.3710267739
 10
256.8623729092
 20
-99.7820922897
 10
257.3775695585
 20
-102.1104905636
 10
257.9935498241
 20
-104.3515987763
 10
258.709090734
 20
-106.500967415
 10
259.522771648
 20
-108.5543291071
 10
260.4329770781
 20
-110.5076070931
 10
261.4378998955
 20
-112.3569233203
 10
262.5355449191
 20
-114.0986061426
 10
263.7237328762
 20
-115.7291976099
 10
265.0001047296
 20
-117.2454603338
 10
266.3621263612
 20
-118.6443839151
 10
267.8070936032
 20
-119.9231909204
 10
269.3321376067
 20
-121.0793423968
 10
270.934230538
 20
-122.1105429125
 10
272.6101915901
 20
-123.0147451145
 10
274.3566932973
 20
-123.7901537929
 10
276.1702681421
 20
-124.4352294455
 10
278.0473154397
 20
-124.9486913344
 10
279.9841084862
 20
-125.3295200285
 10
281.9768019584
 20
-125.5769594277
 10
284.0214395479
 20
-125.690518264
 10
286.113961816
 20
-125.6699710768
 10
288.2502142534
 20
-125.5153586606
 10
290.4259555287
 20
-125.2269879842
 10
292.6368659089
 20
-124.8054315807
 10
294.8785558361
 20
-124.2515264114
 10
297.1465746425
 20
-123.5663722037
 10
299.4364193867
 20
-122.751329268
 10
301.7435437938
 20
-121.8080157964
 10
304.0633672821
 20
-120.7383046506
 10
306.3912840565
 20
-119.5443196431
 10
308.722672254
 20
-118.2284313205
 10
311.0529031189
 20
-116.7932522573
 10
313.3773501936
 20
-115.2416318687
 10
315.6913985037
 20
-113.5766507534
 10
317.9904537204
 20
-111.8016145772
 10
320.2699512823
 20
-109.9200475102
 10
322.5253654581
 20
-107.9356852296
 10
324.7522183317
 20
-105.852467503
 10
326.9460886928
 20
-103.6745303665
 10
329.1026208149
 20
-101.4061979125
 10
331.2175331031
 20
-99.0519737052
 10
333.2866265949
 20
-96.6165318389
 10
335.3057932965
 20
-94.1047076579
 10
337.2710243395
 20
-91.5214881567
 10
339.1784179394
 20
-88.8720020784
 10
341.024187143
 20
-86.1615097324
 10
342.8046673462
 20
-83.3953925505
 10
344.5163235704
 20
-80.5791424021
 10
346.1557574806
 20
-77.7183506912
 10
347.7197141326
 20
-74.8186972551
 10
349.2050884353
 20
-71.8859390872
 10
350.6089313153
 20
-68.9258989074
 10
351.9284555726
 20
-65.9444536015
 10
353.161041414
 20
-62.9475225531
 10
354.3042416543
 20
-59.9410558914
 10
355.3557865753
 20
-56.9310226777
 10
356.3135884319
 20
-53.9233990543
 10
357.1757455972
 20
-50.9241563795
 10
357.9405463379
 20
-47.9392493721
 10
358.6064722129
 20
-44.9746042886
 10
359.1722010881
 20
-42.0361071573
 10
359.6366097611
 20
-39.1295920925
 10
359.9987761915
 20
-36.2608297105
 10
360.2579813313
 20
-33.4355156737
 10
360.4137105529
 20
-30.6592593816
 10
360.4656546701
 20
-27.9375728339
  0
ARC
  5
108
330
1F
100
AcDbEntity
  8
0
  6
Continuous
 62
     7
370
    25
100
AcDbCircle
 10
283.9362550197
 20
-101.7032738166
 30
0.0
 40
25.17469035613485
100
AcDbArc
 50
229.7138911815
 51
249.8144717914
  0
ARC
  5
109
330
1F
100
AcDbEntity
  8
0
  6
Continuous
 62
     7
370
    25
100
AcDbCircle
 10
333.7504931499
 20
-15.4132651826
 30
0.0
 40
25.18723860429607
100
AcDbArc
 50
50.7563362942
 51
69.9175974547
  0
ARC
  5
10A
330
1F
100
AcDbEntity
  8
0
  6
Continuous
 62
     7
370
    25
100
AcDbCircle
 10
345.0269010638
 20
-21.9895824003
 30
0.0
 40
25.24585170967563
100
AcDbArc
 50
49.9691142993
 51
59.9798357894
  0
ARC
  5
10B
330
1F
100
AcDbEntity
  8
0
  6
Continuous
 62
     7
370
    25
100
AcDbCircle
 10
295.2813288651
 20
-108.1589737317
 30
0.0
 40
25.25648459311424
100
AcDbArc
 50
240.0275771913
 51
250.0629826543
  0
LWPOLYLINE
  5
10C
330
1F
100
AcDbEntity
  8
0
  6
Continuous
 62
     7
370
    25
100
AcDbPolyline
 90
       53
 70
   128
 43
0.0
 10
315.2108206742
 20
-98.9723770659
 10
315.1592646285
 20
-99.9863709252
 10
315.0053482947
 20
-101.0451038139
 10
314.7513161196
 20
-102.1331370226
 10
314.4008724642
 20
-103.234604577
 10
313.9591275861
 20
-104.3334446
 10
313.4325231206
 20
-105.4136335295
 10
312.8287381463
 20
-106.4594197786
 10
312.156577208
 20
-107.4555534289
 10
311.4258419256
 20
-108.3875086088
 10
310.647188065
 20
-109.241695313
 10
309.831970153
 20
-110.0056575759
 10
308.9920759022
 20
-110.6682551076
 10
308.1397528623
 20
-111.2198257439
 10
307.2874298224
 20
-111.6523263429
 10
306.4475355717
 20
-111.959450072
 10
305.6323176596
 20
-112.1367183757
 10
304.8536637991
 20
-112.1815462828
 10
304.1229285167
 20
-112.0932801017
 10
303.4507675783
 20
-111.8732069518
 10
302.8469826041
 20
-111.5245359954
 10
302.3203781385
 20
-111.0523516401
 10
301.8786332605
 20
-110.4635393971
 10
301.5281896051
 20
-109.7666854748
 10
301.2741574299
 20
-108.9719515725
 10
301.1202410961
 20
-108.0909267001
 10
301.0686850505
 20
-107.1364581842
 10
301.1202410961
 20
-106.1224643249
 10
301.2741574299
 20
-105.0637314362
 10
301.5281896051
 20
-103.9756982275
 10
301.8786332605
 20
-102.874230673
 10
302.3203781385
 20
-101.7753906501
 10
302.8469826041
 20
-100.6952017206
 10
303.4507675783
 20
-99.6494154715
 10
304.1229285167
 20
-98.6532818211
 10
304.8536637991
 20
-97.7213266413
 10
305.6323176596
 20
-96.8671399371
 10
306.4475355717
 20
-96.1031776741
 10
307.2874298224
 20
-95.4405801425
 10
308.1397528623
 20
-94.8890095062
 10
308.9920759022
 20
-94.4565089072
 10
309.831970153
 20
-94.149385178
 10
310.647188065
 20
-93.9721168744
 10
311.4258419256
 20
-93.9272889672
 10
312.156577208
 20
-94.0155551484
 10
312.8287381463
 20
-94.2356282983
 10
313.4325231206
 20
-94.5842992547
 10
313.9591275861
 20
-95.05648361
 10
314.4008724642
 20
-95.645295853
 10
314.7513161196
 20
-96.3421497753
 10
315.0053482947
 20
-97.1368836776
 10
315.1592646285
 20
-98.01790855
 10
315.2108206742
 20
-98.9723770659
  0
LWPOLYLINE
  5
10D
330
1F
100
AcDbEntity
  8
0
  6
Continuous
 62
     7
370
    25
100
AcDbPolyline
 90
       53
 70
   128
 43
0.0
 10
315.2108206742
 20
-9.1528877585
 10
315.1592646285
 20
-10.1668816177
 10
315.0053482947
 20
-11.2256145065
 10
314.7513161196
 20
-12.3136477152
 10
314.4008724642
 20
-13.4151152696
 10
313.9591275861
 20
-14.5139552925
 10
313.4325231206
 20
-15.594144222
 10
312.8287381463
 20
-16.6399304712
 10
312.156577208
 20
-17.6360641215
 10
311.4258419256
 20
-18.5680193013
 10
310.647188065
 20
-19.4222060055
 10
309.831970153
 20
-20.1861682685
 10
308.9920759022
 20
-20.8487658002
 10
308.1397528623
 20
-21.4003364365
 10
307.2874298224
 20
-21.8328370355
 10
306.4475355717
 20
-22.1399607646
 10
305.6323176596
 20
-22.3172290683
 10
304.8536637991
 20
-22.3620569754
 10
304.1229285167
 20
-22.2737907942
 10
303.4507675783
 20
-22.0537176444
 10
302.8469826041
 20
-21.705046688
 10
302.3203781385
 20
-21.2328623327
 10
301.8786332605
 20
-20.6440500897
 10
301.5281896051
 20
-19.9471961673
 10
301.2741574299
 20
-19.152462265
 10
301.1202410962
 20
-18.2714373927
 10
301.0686850505
 20
-17.3169688767
 10
301.1202410962
 20
-16.3029750175
 10
301.2741574299
 20
-15.2442421287
 10
301.5281896051
 20
-14.15620892
 10
301.8786332605
 20
-13.0547413656
 10
302.3203781385
 20
-11.9559013427
 10
302.8469826041
 20
-10.8757124132
 10
303.4507675783
 20
-9.8299261641
 10
304.1229285167
 20
-8.8337925137
 10
304.8536637991
 20
-7.9018373339
 10
305.6323176596
 20
-7.0476506297
 10
306.4475355717
 20
-6.2836883667
 10
307.2874298224
 20
-5.6210908351
 10
308.1397528623
 20
-5.0695201988
 10
308.9920759022
 20
-4.6370195997
 10
309.831970153
 20
-4.3298958706
 10
310.647188065
 20
-4.152627567
 10
311.4258419256
 20
-4.1077996598
 10
312.156577208
 20
-4.196065841
 10
312.8287381463
 20
-4.4161389908
 10
313.4325231206
 20
-4.7648099473
 10
313.9591275861
 20
-5.2369943025
 10
314.4008724642
 20
-5.8258065456
 10
314.7513161196
 20
-6.5226604679
 10
315.0053482947
 20
-7.3173943702
 10
315.1592646285
 20
-8.1984192426
 10
315.2108206742
 20
-9.1528877585
  0
LWPOLYLINE
  5
10E
330
1F
100
AcDbEntity
  8
0
  6
Continuous
 62
     7
370
    25
100
AcDbPolyline
 90
       94
 70
   128
 43
0.0
 10
330.7671698603
 20
-45.0821431822
 10
330.7155480033
 20
-46.8759266782
 10
330.5609179711
 20
-48.7211268789
 10
330.3039853051
 20
-50.6093245591
 10
329.9459223299
 20
-52.5319043058
 10
329.488362805
 20
-54.4800938286
 10
328.9333944694
 20
-56.4450039855
 10
328.2835495164
 20
-58.4176693421
 10
327.5417930395
 20
-60.3890890789
 10
326.7115095032
 20
-62.3502680598
 10
325.7964873011
 20
-64.2922578749
 10
324.8009014694
 20
-66.20619767
 10
323.7292946381
 20
-68.083354577
 10
322.5865563032
 20
-69.9151635594
 10
321.3779005178
 20
-71.6932664928
 10
320.1088421009
 20
-73.4095503016
 10
318.7851714751
 20
-75.0561839762
 10
317.4129282458
 20
-76.625654305
 10
315.998373644
 20
-78.1108001547
 10
314.5479619582
 20
-79.5048451455
 10
313.068311084
 20
-80.8014285699
 10
311.566172329
 20
-81.994634415
 10
310.0483996079
 20
-83.0790183563
 10
308.5219181695
 20
-84.0496325985
 10
306.9936929984
 20
-84.9020484516
 10
305.4706970357
 20
-85.6323765374
 10
303.9598793624
 20
-86.2372845364
 10
302.4681334933
 20
-86.7140123921
 10
301.0022659225
 20
-87.0603849048
 10
299.5689650676
 20
-87.274821656
 10
298.1747707516
 20
-87.35634422
 10
296.8260443634
 20
-87.3045806281
 10
295.5289398321
 20
-87.1197670658
 10
294.2893755483
 20
-86.8027467948
 10
293.1130073594
 20
-86.3549663059
 10
292.0052027638
 20
-85.7784687189
 10
290.9710164196
 20
-85.07588446
 10
290.015167082
 20
-84.25041926
 10
289.1420160722
 20
-83.3058395273
 10
288.3555473781
 20
-82.2464551626
 10
287.6593494759
 20
-81.0770998937
 10
287.0565989569
 20
-79.8031092206
 10
286.5500460336
 20
-78.4302960705
 10
286.1420019908
 20
-76.9649242748
 10
285.8343286397
 20
-75.4136799891
 10
285.6284298235
 20
-73.7836411852
 10
285.525245011
 20
-72.0822453563
 10
285.525245011
 20
-70.3172555813
 10
285.6284298235
 20
-68.4967251037
 10
285.8343286397
 20
-66.6289605867
 10
286.1420019908
 20
-64.7224842112
 10
286.5500460336
 20
-62.7859947917
 10
287.0565989569
 20
-60.8283280852
 10
287.6593494759
 20
-58.858416476
 10
288.3555473781
 20
-56.8852482189
 10
289.1420160722
 20
-54.9178264281
 10
290.015167082
 20
-52.965127998
 10
290.9710164196
 20
-51.0360626436
 10
292.0052027638
 20
-49.1394322476
 10
293.1130073594
 20
-47.2838906997
 10
294.2893755483
 20
-45.4779044102
 10
295.5289398321
 20
-43.7297136804
 10
296.8260443634
 20
-42.0472951037
 10
298.1747707516
 20
-40.43832517
 10
299.5689650676
 20
-38.9101452403
 10
301.0022659225
 20
-37.4697280489
 10
302.4681334933
 20
-36.1236458893
 10
303.9598793624
 20
-34.8780406254
 10
305.4706970357
 20
-33.7385956685
 10
306.9936929984
 20
-32.7105100446
 10
308.5219181695
 20
-31.7984746725
 10
310.0483996079
 20
-31.0066509605
 10
311.566172329
 20
-30.3386518185
 10
313.068311084
 20
-29.7975251735
 10
314.5479619582
 20
-29.3857400621
 10
315.998373644
 20
-29.1051753655
 10
317.4129282458
 20
-28.957111236
 10
318.7851714751
 20
-28.9422232561
 10
320.1088421009
 20
-29.0605793565
 10
321.3779005178
 20
-29.3116395053
 10
322.5865563032
 20
-29.6942581726
 10
323.7292946381
 20
-30.2066895573
 10
324.8009014694
 20
-30.8465955524
 10
325.7964873011
 20
-31.6110564137
 10
326.7115095032
 20
-32.4965840816
 10
327.5417930395
 20
-33.4991380965
 10
328.2835495164
 20
-34.6141440343
 10
328.9333944694
 20
-35.8365143787
 10
329.488362805
 20
-37.1606717341
 10
329.9459223299
 20
-38.5805742743
 10
330.3039853051
 20
-40.0897433096
 10
330.5609179711
 20
-41.6812928478
 10
330.7155480033
 20
-43.3479610136
 10
330.7671698603
 20
-45.0821431822
  0
LWPOLYLINE
  5
10F
330
1F
100
AcDbEntity
  8
0
  6
Continuous
 62
     7
370
    25
100
AcDbPolyline
 90
       53
 70
   128
 43
0.0
 10
354.1016936395
 20
-31.6114093371
 10
354.0501375938
 20
-32.6254031963
 10
353.89622126
 20
-33.6841360851
 10
353.6421890848
 20
-34.7721692938
 10
353.2917454294
 20
-35.8736368482
 10
352.8500005514
 20
-36.9724768711
 10
352.3233960858
 20
-38.0526658006
 10
351.7196111116
 20
-39.0984520498
 10
351.0474501733
 20
-40.0945857001
 10
350.3167148909
 20
-41.0265408799
 10
349.5380610303
 20
-41.8807275841
 10
348.7228431182
 20
-42.6446898471
 10
347.8829488675
 20
-43.3072873788
 10
347.0306258276
 20
-43.8588580151
 10
346.1783027877
 20
-44.2913586141
 10
345.338408537
 20
-44.5984823432
 10
344.5231906249
 20
-44.7757506469
 10
343.7445367643
 20
-44.820578554
 10
343.0138014819
 20
-44.7323123728
 10
342.3416405436
 20
-44.512239223
 10
341.7378555694
 20
-44.1635682666
 10
341.2112511038
 20
-43.6913839113
 10
340.7695062258
 20
-43.1025716683
 10
340.4190625704
 20
-42.4057177459
 10
340.1650303952
 20
-41.6109838436
 10
340.0111140614
 20
-40.7299589712
 10
339.9595580157
 20
-39.7754904553
 10
340.0111140614
 20
-38.7614965961
 10
340.1650303952
 20
-37.7027637073
 10
340.4190625704
 20
-36.6147304986
 10
340.7695062258
 20
-35.5132629442
 10
341.2112511038
 20
-34.4144229213
 10
341.7378555694
 20
-33.3342339918
 10
342.3416405436
 20
-32.2884477426
 10
343.0138014819
 20
-31.2923140923
 10
343.7445367643
 20
-30.3603589125
 10
344.5231906249
 20
-29.5061722083
 10
345.338408537
 20
-28.7422099453
 10
346.1783027877
 20
-28.0796124137
 10
347.0306258276
 20
-27.5280417774
 10
347.8829488675
 20
-27.0955411783
 10
348.7228431182
 20
-26.7884174492
 10
349.5380610303
 20
-26.6111491456
 10
350.3167148909
 20
-26.5663212384
 10
351.0474501733
 20
-26.6545874196
 10
351.7196111116
 20
-26.8746605694
 10
352.3233960858
 20
-27.2233315258
 10
352.8500005514
 20
-27.6955158811
 10
353.2917454294
 20
-28.2843281242
 10
353.6421890848
 20
-28.9811820465
 10
353.89622126
 20
-29.7759159488
 10
354.0501375938
 20
-30.6569408212
 10
354.1016936395
 20
-31.6114093371
  0
LWPOLYLINE
  5
110
330
1F
100
AcDbEntity
  8
0
  6
Continuous
 62
     7
370
    25
100
AcDbPolyline
 90
       53
 70
   128
 43
0.0
 10
276.3199477089
 20
-76.5138554873
 10
276.2683916633
 20
-77.5278493466
 10
276.1144753295
 20
-78.5865822353
 10
275.8604431543
 20
-79.674615444
 10
275.5099994989
 20
-80.7760829984
 10
275.0682546209
 20
-81.8749230214
 10
274.5416501553
 20
-82.9551119509
 10
273.9378651811
 20
-84.0008982
 10
273.2657042427
 20
-84.9970318503
 10
272.5349689603
 20
-85.9289870302
 10
271.7563150998
 20
-86.7831737344
 10
270.9410971877
 20
-87.5471359973
 10
270.101202937
 20
-88.209733529
 10
269.2488798971
 20
-88.7613041653
 10
268.3965568572
 20
-89.1938047643
 10
267.5566626065
 20
-89.5009284935
 10
266.7414446944
 20
-89.6781967971
 10
265.9627908338
 20
-89.7230247043
 10
265.2320555514
 20
-89.6347585231
 10
264.5598946131
 20
-89.4146853732
 10
263.9561096389
 20
-89.0660144168
 10
263.4295051733
 20
-88.5938300615
 10
262.9877602953
 20
-88.0050178185
 10
262.6373166399
 20
-87.3081638962
 10
262.3832844647
 20
-86.5134299939
 10
262.2293681309
 20
-85.6324051215
 10
262.1778120852
 20
-84.6779366056
 10
262.2293681309
 20
-83.6639427463
 10
262.3832844647
 20
-82.6052098576
 10
262.6373166399
 20
-81.5171766489
 10
262.9877602953
 20
-80.4157090945
 10
263.4295051733
 20
-79.3168690715
 10
263.9561096389
 20
-78.236680142
 10
264.5598946131
 20
-77.1908938929
 10
265.2320555514
 20
-76.1947602426
 10
265.9627908338
 20
-75.2628050627
 10
266.7414446944
 20
-74.4086183585
 10
267.5566626065
 20
-73.6446560956
 10
268.3965568572
 20
-72.9820585639
 10
269.2488798971
 20
-72.4304879276
 10
270.101202937
 20
-71.9979873286
 10
270.9410971877
 20
-71.6908635994
 10
271.7563150998
 20
-71.5135952958
 10
272.5349689603
 20
-71.4687673886
 10
273.2657042427
 20
-71.5570335698
 10
273.9378651811
 20
-71.7771067197
 10
274.5416501553
 20
-72.1257776761
 10
275.0682546209
 20
-72.5979620314
 10
275.5099994989
 20
-73.1867742744
 10
275.8604431543
 20
-73.8836281967
 10
276.1144753295
 20
-74.678362099
 10
276.2683916633
 20
-75.5593869714
 10
276.3199477089
 20
-76.5138554873
  0
ARC
  5
111
330
1F
100
AcDbEntity
  8
0
  6
Continuous
 62
     7
370
    25
100
AcDbCircle
 10
319.1433893473
 20
-40.7174199048
 30
0.0
 40
10.4054718333696
100
AcDbArc
 50
49.73829381
 51
69.0390076881
  0
ARC
  5
112
330
1F
100
AcDbEntity
  8
0
  6
Continuous
 62
     7
370
    25
100
AcDbCircle
 10
298.548449579
 20
-76.3916389619
 30
0.0
 40
10.40173426475294
100
AcDbArc
 50
229.7378716117
 51
249.3652057202
  0
LWPOLYLINE
  5
113
330
1F
100
AcDbEntity
  8
0
  6
Continuous
 62
     1
370
    25
100
AcDbPolyline
 90
       53
 70
   128
 43
0.0
 10
361.8798682325
 20
-27.9375728339
 10
361.8279609301
 20
-30.6764132453
 10
361.672340634
 20
-33.4698231436
 10
361.4133119781
 20
-36.3123342978
 10
361.0513820233
 20
-39.1983823588
 10
360.5872592644
 20
-42.1223177521
 10
360.0218522435
 20
-45.0784167366
 10
359.3562677714
 20
-48.06089261
 10
358.591808761
 20
-51.0639070356
 10
357.7299716766
 20
-54.0815814716
 10
356.7724436049
 20
-57.1080086786
 10
355.721098952
 20
-60.1372642832
 10
354.5779957744
 20
-63.1634183755
 10
353.3453717503
 20
-66.1805471165
 10
352.0256397991
 20
-69.1827443351
 10
350.6213833581
 20
-72.1641330893
 10
349.1353513252
 20
-75.1188771705
 10
347.5704526778
 20
-78.0411925286
 10
345.9297507787
 20
-80.9253585938
 10
344.2164573787
 20
-83.7657294758
 10
342.4339263302
 20
-86.5567450151
 10
340.5856470214
 20
-89.2929416678
 10
338.6752375459
 20
-91.9689632004
 10
336.7064376198
 20
-94.5795711751
 10
334.6831012616
 20
-97.1196552041
 10
332.6091892472
 20
-99.5842429538
 10
330.4887613567
 20
-101.9685098779
 10
328.3259684272
 20
-104.2677886618
 10
326.1250442276
 20
-106.4775783595
 10
323.8902971703
 20
-108.5935532037
 10
321.6261018776
 20
-110.6115710744
 10
319.3368906181
 20
-112.5276816069
 10
317.0271446303
 20
-114.3381339247
 10
314.7013853506
 20
-116.0393839825
 10
312.3641655618
 20
-117.6281015033
 10
310.0200604815
 20
-119.101176498
 10
307.6736588055
 20
-120.4557253532
 10
305.3295537253
 20
-121.6890964758
 10
302.9923339365
 20
-122.798875484
 10
300.6665746567
 20
-123.7828899332
 10
298.356828669
 20
-124.6392135689
 10
296.0676174095
 20
-125.3661700974
 10
293.8034221168
 20
-125.9623364672
 10
291.5686750594
 20
-126.4265456546
 10
289.3677508598
 20
-126.7578889483
 10
287.2049579304
 20
-126.9557177282
 10
285.0845300399
 20
-127.0196447353
 10
283.0106180254
 20
-126.9495448293
 10
280.9872816672
 20
-126.7455552343
 10
279.0184817412
 20
-126.4080752693
 10
277.1080722657
 20
-125.9377655673
 10
275.2597929569
 20
-125.3355467815
 10
275.2494475899
 20
-125.331739937
  0
LWPOLYLINE
  5
114
330
1F
100
AcDbEntity
  8
0
  6
Continuous
 62
     1
370
    25
100
AcDbPolyline
 90
       17
 70
   128
 43
0.0
 10
349.6844361076
 20
4.0933093585
 10
350.6213833581
 20
3.2902174721
 10
352.0256397991
 20
1.9301486939
 10
353.3453717503
 20
0.4516815527
 10
354.5779957744
 20
-1.1422897829
 10
355.721098952
 20
-2.848645039
 10
356.7724436049
 20
-4.6640439451
 10
357.7299716766
 20
-6.5849327725
 10
358.591808761
 20
-8.6075512913
 10
359.3562677714
 20
-10.7279401306
 10
360.0218522435
 20
-12.9419485298
 10
360.5872592644
 20
-15.2452424634
 10
361.0513820233
 20
-17.6333131254
 10
361.4133119781
 20
-20.1014857553
 10
361.672340634
 20
-22.6449287892
 10
361.8279609301
 20
-25.2586633182
 10
361.8798682325
 20
-27.9375728339
  0
LWPOLYLINE
  5
115
330
1F
100
AcDbEntity
  8
0
  6
Continuous
 62
     1
370
    25
100
AcDbPolyline
 90
       17
 70
   128
 43
0.0
 10
373.1935767315
 20
-34.4688377285
 10
373.1416694291
 20
-31.7899282127
 10
372.986049133
 20
-29.1761936838
 10
372.7270204771
 20
-26.6327506498
 10
372.3650905223
 20
-24.1645780199
 10
371.9009677634
 20
-21.776507358
 10
371.3355607425
 20
-19.4732134244
 10
370.6699762704
 20
-17.2592050252
 10
369.9055172599
 20
-15.1388161859
 10
369.0436801756
 20
-13.1161976671
 10
368.0861521039
 20
-11.1953088397
 10
367.034807451
 20
-9.3799099336
 10
365.8917042734
 20
-7.6735546775
 10
364.6590802493
 20
-6.0795833419
 10
363.3393482981
 20
-4.6011162006
 10
361.9350918571
 20
-3.2410474225
 10
361.2650444467
 20
-2.6588884649
  0
LWPOLYLINE
  5
116
330
1F
100
AcDbEntity
  8
0
  6
Continuous
 62
     1
370
    25
100
AcDbPolyline
 90
       52
 70
   128
 43
0.0
 10
286.6691965752
 20
-131.9017872007
 10
288.4217807646
 20
-132.4690304619
 10
290.3321902402
 20
-132.9393401639
 10
292.3009901662
 20
-133.2768201289
 10
294.3243265244
 20
-133.4808097239
 10
296.3982385389
 20
-133.5509096298
 10
298.5186664294
 20
-133.4869826228
 10
300.6814593588
 20
-133.2891538428
 10
302.8823835584
 20
-132.9578105492
 10
305.1171306157
 20
-132.4936013618
 10
307.3813259085
 20
-131.897434992
 10
309.670537168
 20
-131.1704784635
 10
311.9802831557
 20
-130.3141548278
 10
314.3060424355
 20
-129.3301403786
 10
316.6432622242
 20
-128.2203613704
 10
318.9873673045
 20
-126.9869902478
 10
321.3337689805
 20
-125.6324413926
 10
323.6778740608
 20
-124.1593663979
 10
326.0150938495
 20
-122.570648877
 10
328.3408531293
 20
-120.8693988193
 10
330.6505991171
 20
-119.0589465015
 10
332.9398103766
 20
-117.142835969
 10
335.2040056693
 20
-115.1248180983
 10
337.4387527266
 20
-113.0088432541
 10
339.6396769262
 20
-110.7990535564
 10
341.8024698556
 20
-108.4997747725
 10
343.9228977462
 20
-106.1155078484
 10
345.9968097606
 20
-103.6509200987
 10
348.0201461188
 20
-101.1108360697
 10
349.9889460448
 20
-98.500228095
 10
351.8993555204
 20
-95.8242065624
 10
353.7476348292
 20
-93.0880099097
 10
355.5301658777
 20
-90.2969943704
 10
357.2434592777
 20
-87.4566234884
 10
358.8841611768
 20
-84.5724574231
 10
360.4490598242
 20
-81.6501420651
 10
361.9350918571
 20
-78.6953979838
 10
363.3393482981
 20
-75.7140092297
 10
364.6590802493
 20
-72.7118120111
 10
365.8917042734
 20
-69.69468327
 10
367.034807451
 20
-66.6685291778
 10
368.0861521039
 20
-63.6392735732
 10
369.0436801756
 20
-60.6128463661
 10
369.9055172599
 20
-57.5951719301
 10
370.6699762704
 20
-54.5921575046
 10
371.3355607425
 20
-51.6096816312
 10
371.9009677634
 20
-48.6535826466
 10
372.3650905223
 20
-45.7296472534
 10
372.7270204771
 20
-42.8435991924
 10
372.986049133
 20
-40.0010880382
 10
373.1416694291
 20
-37.2076781399
 10
373.1935767315
 20
-34.4688377285
  0
LWPOLYLINE
  5
117
330
1F
100
AcDbEntity
  8
0
  6
Continuous
 62
     1
370
    25
100
AcDbPolyline
 90
       26
 70
   128
 43
0.0
 10
352.2537358483
 20
-28.3167327725
 10
351.7055974108
 20
-28.0654785376
 10
351.0367627121
 20
-27.9128337178
 10
350.3137580303
 20
-27.8946490999
 10
349.5484550823
 20
-28.0112232748
 10
348.7534201213
 20
-28.2606420977
 10
347.9417075994
 20
-28.6388101184
 10
347.1266458139
 20
-29.1395178287
 10
346.3216180566
 20
-29.7545436215
 10
345.5398428611
 20
-30.4737887906
 10
344.7941569545
 20
-31.2854433499
 10
344.0968044788
 20
-32.1761799543
 10
343.4592359423
 20
-33.1313727331
 10
342.8919202028
 20
-34.1353374475
 10
342.404172569
 20
-35.1715890245
 10
342.0040018436
 20
-36.2231122418
 10
341.6979788189
 20
-37.2726411175
 10
341.4911283844
 20
-38.3029424162
 10
341.3868470186
 20
-39.2970986192
 10
341.3868470186
 20
-40.2387857092
 10
341.4911283844
 20
-41.11254121
 10
341.6979788189
 20
-41.9040180807
 10
342.0040018436
 20
-42.6002202927
 10
342.404172569
 20
-43.1897162251
 10
342.8919202028
 20
-43.6628263709
 10
343.24449626
 20
-43.8997766836
  0
LWPOLYLINE
  5
118
330
1F
100
AcDbEntity
  8
0
  6
Continuous
 62
     1
370
    25
100
AcDbPolyline
 90
       26
 70
   128
 43
0.0
 10
313.362862883
 20
-95.6777005013
 10
312.8147244456
 20
-95.4264462664
 10
312.1458897468
 20
-95.2738014467
 10
311.422885065
 20
-95.2556168287
 10
310.657582117
 20
-95.3721910036
 10
309.862547156
 20
-95.6216098265
 10
309.0508346342
 20
-95.9997778473
 10
308.2357728486
 20
-96.5004855575
 10
307.4307450913
 20
-97.1155113504
 10
306.6489698958
 20
-97.8347565194
 10
305.9032839892
 20
-98.6464110788
 10
305.2059315135
 20
-99.5371476831
 10
304.568362977
 20
-100.492340462
 10
304.0010472375
 20
-101.4963051763
 10
303.5132996037
 20
-102.5325567533
 10
303.1131288783
 20
-103.5840799707
 10
302.8071058536
 20
-104.6336088463
 10
302.6002554191
 20
-105.6639101451
 10
302.4959740533
 20
-106.6580663481
 10
302.4959740533
 20
-107.599753438
 10
302.6002554191
 20
-108.4735089389
 10
302.8071058536
 20
-109.2649858095
 10
303.1131288783
 20
-109.9611880215
 10
303.5132996037
 20
-110.5506839539
 10
304.0010472375
 20
-111.0237940998
 10
304.3536232947
 20
-111.2607444125
  0
LWPOLYLINE
  5
119
330
1F
100
AcDbEntity
  8
0
  6
Continuous
 62
     1
370
    25
100
AcDbPolyline
 90
       45
 70
   128
 43
0.0
 10
322.8657624403
 20
-31.0005385825
 10
322.5139495173
 20
-30.8727172661
 10
321.2990151151
 20
-30.5324033497
 10
320.0247405214
 20
-30.3256197509
 10
318.697198235
 20
-30.2533518875
 10
317.3227145993
 20
-30.315944149
 10
315.9078396549
 20
-30.5130982547
 10
314.4593159252
 20
-30.8438746755
 10
312.9840462854
 20
-31.3066971111
 10
311.4890610672
 20
-31.8993600018
 10
309.981484556
 20
-32.6190390391
 10
308.4685010403
 20
-33.4623046246
 10
306.9573205757
 20
-34.4251382138
 10
305.4551446253
 20
-35.5029514662
 10
303.9691317415
 20
-36.6906081108
 10
302.5063634524
 20
-37.9824484227
 10
301.0738105152
 20
-39.3723161947
 10
299.6782996968
 20
-40.8535880738
 10
298.326481242
 20
-42.419205125
 10
297.0247971812
 20
-44.0617064701
 10
295.7794506317
 20
-45.7732648421
 10
294.5963762371
 20
-47.5457238859
 10
293.4812118855
 20
-49.3706370271
 10
292.439271843
 20
-51.2393077235
 10
291.4755214283
 20
-53.1428309082
 10
290.5945533511
 20
-55.0721354264
 10
289.8005658254
 20
-57.0180272634
 10
289.0973425634
 20
-58.9712333585
 10
288.4882347442
 20
-60.9224457952
 10
287.9761450439
 20
-62.8623661576
 10
287.5635138031
 20
-64.7817498417
 10
287.2523073976
 20
-66.6714501103
 10
287.0440088677
 20
-68.522461681
 10
286.9396108507
 20
-70.3259636407
 10
286.9396108507
 20
-72.0733614812
 10
287.0440088677
 20
-73.7563280561
 10
287.2523073976
 20
-75.3668432632
 10
287.5635138031
 20
-76.8972322642
 10
287.9761450439
 20
-78.3402020585
 10
288.4882347442
 20
-79.688876238
 10
289.0973425634
 20
-80.9368277559
 10
289.8005658254
 20
-82.078109555
 10
290.5945533511
 20
-83.1072829078
 10
291.4755214283
 20
-84.0194433345
 10
291.8259592737
 20
-84.3291574538
  0
LWPOLYLINE
  5
11A
330
1F
100
AcDbEntity
  8
0
  6
Continuous
 62
     1
370
    25
100
AcDbPolyline
 90
       37
 70
   128
 43
0.0
 10
300.020323845
 20
-86.7027656379
 10
299.8019432432
 20
-86.2201411326
 10
299.2898535429
 20
-84.8714669531
 10
298.8772223021
 20
-83.4284971588
 10
298.5660158966
 20
-81.8981081578
 10
298.3577173667
 20
-80.2875929507
 10
298.2533193497
 20
-78.6046263758
 10
298.2533193497
 20
-76.8572285353
 10
298.3577173667
 20
-75.0537265756
 10
298.5660158966
 20
-73.2027150049
 10
298.8772223021
 20
-71.3130147363
 10
299.2898535429
 20
-69.3936310522
 10
299.8019432432
 20
-67.4537106898
 10
300.4110510624
 20
-65.5024982531
 10
301.1142743244
 20
-63.549292158
 10
301.9082618501
 20
-61.603400321
 10
302.7892299273
 20
-59.6740958028
 10
303.752980342
 20
-57.7705726181
 10
304.7949203845
 20
-55.9019019217
 10
305.9100847361
 20
-54.0769887805
 10
307.0931591307
 20
-52.3045297366
 10
308.3385056802
 20
-50.5929713646
 10
309.640189741
 20
-48.9504700196
 10
310.9920081958
 20
-47.3848529684
 10
312.3875190142
 20
-45.9035810893
 10
313.8200719514
 20
-44.5137133173
 10
315.2828402405
 20
-43.2218730053
 10
316.7688531243
 20
-42.0342163608
 10
318.2710290747
 20
-40.9564031084
 10
319.7822095393
 20
-39.9935695192
 10
321.295193055
 20
-39.1503039337
 10
322.8027695662
 20
-38.4306248964
 10
324.2977547844
 20
-37.8379620056
 10
325.7730244242
 20
-37.37513957
 10
327.2215481539
 20
-37.0443631493
 10
328.6364230983
 20
-36.8472090436
 10
328.8428893503
 20
-36.8294205776
  0
LWPOLYLINE
  5
11B
330
1F
100
AcDbEntity
  8
0
  6
Continuous
 62
     1
370
    25
100
AcDbPolyline
 90
       26
 70
   128
 43
0.0
 10
313.362862883
 20
-5.8582111939
 10
312.8147244456
 20
-5.606956959
 10
312.1458897468
 20
-5.4543121392
 10
311.422885065
 20
-5.4361275213
 10
310.657582117
 20
-5.5527016962
 10
309.862547156
 20
-5.8021205191
 10
309.0508346342
 20
-6.1802885399
 10
308.2357728486
 20
-6.6809962501
 10
307.4307450913
 20
-7.2960220429
 10
306.6489698958
 20
-8.015267212
 10
305.9032839892
 20
-8.8269217714
 10
305.2059315135
 20
-9.7176583757
 10
304.568362977
 20
-10.6728511545
 10
304.0010472375
 20
-11.6768158689
 10
303.5132996037
 20
-12.7130674459
 10
303.1131288783
 20
-13.7645906632
 10
302.8071058536
 20
-14.8141195389
 10
302.6002554191
 20
-15.8444208376
 10
302.4959740533
 20
-16.8385770406
 10
302.4959740533
 20
-17.7802641306
 10
302.6002554191
 20
-18.6540196314
 10
302.8071058536
 20
-19.4454965021
 10
303.1131288783
 20
-20.1416987141
 10
303.5132996037
 20
-20.7311946465
 10
304.0010472375
 20
-21.2043047923
 10
304.3536232947
 20
-21.441255105
  0
LWPOLYLINE
  5
11C
330
1F
100
AcDbEntity
  8
0
  6
Continuous
 62
     1
370
    25
100
AcDbPolyline
 90
       26
 70
   128
 43
0.0
 10
274.4719899178
 20
-73.2191789227
 10
273.9238514803
 20
-72.9679246878
 10
273.2550167816
 20
-72.8152798681
 10
272.5320120998
 20
-72.7970952501
 10
271.7667091517
 20
-72.913669425
 10
270.9716741908
 20
-73.1630882479
 10
270.1599616689
 20
-73.5412562687
 10
269.3448998833
 20
-74.0419639789
 10
268.5398721261
 20
-74.6569897718
 10
267.7580969306
 20
-75.3762349408
 10
267.012411024
 20
-76.1878895002
 10
266.3150585482
 20
-77.0786261045
 10
265.6774900118
 20
-78.0338188834
 10
265.1101742722
 20
-79.0377835977
 10
264.6224266385
 20
-80.0740351747
 10
264.2222559131
 20
-81.1255583921
 10
263.9162328883
 20
-82.1750872677
 10
263.7093824539
 20
-83.2053885665
 10
263.6051010881
 20
-84.1995447695
 10
263.6051010881
 20
-85.1412318594
 10
263.7093824539
 20
-86.0149873603
 10
263.9162328883
 20
-86.8064642309
 10
264.2222559131
 20
-87.5026664429
 10
264.6224266385
 20
-88.0921623753
 10
265.1101742722
 20
-88.5652725212
 10
265.4627503295
 20
-88.8022228339
  0
ENDSEC
  0
SECTION
  2
OBJECTS
  0
DICTIONARY
  5
C
330
0
100
AcDbDictionary
281
     1
  3
ACAD_GROUP
350
D
  3
ACAD_LAYOUT
350
1A
  3
ACAD_MLINESTYLE
350
17
  3
ACAD_PLOTSETTINGS
350
19
  3
ACAD_PLOTSTYLENAME
350
E
  3
ACAD_SCALELIST
350
47
  3
DWGPROPS
350
11D
  0
DICTIONARY
  5
D
102
{ACAD_REACTORS
330
C
102
}
330
C
100
AcDbDictionary
281
     1
  0
DICTIONARY
  5
1A
102
{ACAD_REACTORS
330
C
102
}
330
C
100
AcDbDictionary
281
     1
  3
Layout1
350
1E
  3
Layout2
350
26
  3
Model
350
22
  0
DICTIONARY
  5
17
102
{ACAD_REACTORS
330
C
102
}
330
C
100
AcDbDictionary
281
     1
  3
Standard
350
18
  0
DICTIONARY
  5
19
102
{ACAD_REACTORS
330
C
102
}
330
C
100
AcDbDictionary
281
     1
  0
ACDBDICTIONARYWDFLT
  5
E
102
{ACAD_REACTORS
330
C
102
}
330
C
100
AcDbDictionary
281
     1
  3
Normal
350
F
100
AcDbDictionaryWithDefault
340
F
  0
DICTIONARY
  5
47
102
{ACAD_REACTORS
330
C
102
}
330
C
100
AcDbDictionary
281
     1
  3
A0
350
48
  3
A1
350
49
  3
A2
350
4A
  3
A3
350
4B
  3
A4
350
4C
  3
A5
350
4D
  3
A6
350
4E
  3
A7
350
4F
  3
A8
350
50
  3
A9
350
51
  3
B0
350
52
  3
B1
350
53
  3
B2
350
54
  3
B3
350
55
  3
B4
350
56
  3
B5
350
57
  3
B6
350
58
  3
B7
350
59
  3
B8
350
5A
  3
B9
350
5B
  3
C0
350
5C
  3
C1
350
5D
  3
C2
350
5E
  3
C3
350
5F
  3
C4
350
60
  3
C5
350
61
  3
C6
350
62
  3
C7
350
63
  3
C8
350
64
  3
C9
350
65
  3
D0
350
66
  3
D1
350
67
  3
D2
350
68
  0
XRECORD
  5
11D
102
{ACAD_REACTORS
330
C
102
}
330
C
100
AcDbXrecord
280
     1
  1
DWGPROPS COOKIE
  2

  3

  4

  6

  7

  8
b.kav
  9

300
=
301
=
302
=
303
=
304
=
305
=
306
=
307
=
308
=
309
=
 40
0.0
 41
2459741.467418542
 42
2459741.467420139
  1

 90
        0
  0
LAYOUT
  5
1E
102
{ACAD_REACTORS
330
1A
102
}
330
1A
100
AcDbPlotSettings
  1

  2
none_device
  4

  6

 40
0.0
 41
0.0
 42
0.0
 43
0.0
 44
0.0
 45
0.0
 46
0.0
 47
0.0
 48
0.0
 49
0.0
140
0.0
141
0.0
142
1.0
143
1.0
 70
   688
 72
     1
 73
     0
 74
     5
  7

 75
    16
147
1.0
148
0.0
149
0.0
100
AcDbLayout
  1
Layout1
 70
     1
 71
     1
 10
0.0
 20
0.0
 11
420.0
 21
297.0
 12
0.0
 22
0.0
 32
0.0
 14
1.0000000000E+20
 24
1.0000000000E+20
 34
1.0000000000E+20
 15
-1.0000000000E+20
 25
-1.0000000000E+20
 35
-1.0000000000E+20
146
0.0
 13
0.0
 23
0.0
 33
0.0
 16
1.0
 26
0.0
 36
0.0
 17
0.0
 27
1.0
 37
0.0
 76
     0
330
1B
  0
LAYOUT
  5
26
102
{ACAD_REACTORS
330
1A
102
}
330
1A
100
AcDbPlotSettings
  1

  2
none_device
  4

  6

 40
0.0
 41
0.0
 42
0.0
 43
0.0
 44
0.0
 45
0.0
 46
0.0
 47
0.0
 48
0.0
 49
0.0
140
0.0
141
0.0
142
1.0
143
1.0
 70
   688
 72
     1
 73
     0
 74
     5
  7

 75
    16
147
1.0
148
0.0
149
0.0
100
AcDbLayout
  1
Layout2
 70
     1
 71
     2
 10
0.0
 20
0.0
 11
0.0
 21
0.0
 12
0.0
 22
0.0
 32
0.0
 14
0.0
 24
0.0
 34
0.0
 15
0.0
 25
0.0
 35
0.0
146
0.0
 13
0.0
 23
0.0
 33
0.0
 16
1.0
 26
0.0
 36
0.0
 17
0.0
 27
1.0
 37
0.0
 76
     0
330
23
  0
LAYOUT
  5
22
102
{ACAD_REACTORS
330
1A
102
}
330
1A
100
AcDbPlotSettings
  1

  2
none_device
  4
Letter_(8.50_x_11.00_Inches)
  6

 40
6.35
 41
6.35
 42
6.35000508
 43
6.35000508
 44
215.9
 45
279.4
 46
0.0
 47
0.0
 48
0.0
 49
0.0
140
0.0
141
0.0
142
1.0
143
1.0
 70
  1712
 72
     1
 73
     0
 74
     0
  7

 75
     0
147
1.0
148
0.0
149
0.0
100
AcDbLayout
  1
Model
 70
     1
 71
     0
 10
0.0
 20
0.0
 11
279.4
 21
215.9
 12
0.0
 22
0.0
 32
0.0
 14
0.0
 24
0.0
 34
0.0
 15
279.4
 25
215.9
 35
0.0
146
0.0
 13
0.0
 23
0.0
 33
0.0
 16
1.0
 26
0.0
 36
0.0
 17
0.0
 27
1.0
 37
0.0
 76
     0
330
1F
331
29
  0
MLINESTYLE
  5
18
102
{ACAD_REACTORS
330
17
102
}
330
17
100
AcDbMlineStyle
  2
Standard
 70
     0
  3

 62
   256
 51
90.0
 52
90.0
 71
     2
 49
0.5
 62
   256
  6
BYLAYER
 49
-0.5
 62
   256
  6
BYLAYER
  0
ACDBPLACEHOLDER
  5
F
102
{ACAD_REACTORS
330
E
102
}
330
E
  0
SCALE
  5
48
102
{ACAD_REACTORS
330
47
102
}
330
47
100
AcDbScale
 70
     0
300
1:1
140
1.0
141
1.0
290
     1
  0
SCALE
  5
49
102
{ACAD_REACTORS
330
47
102
}
330
47
100
AcDbScale
 70
     0
300
1:2
140
1.0
141
2.0
290
     0
  0
SCALE
  5
4A
102
{ACAD_REACTORS
330
47
102
}
330
47
100
AcDbScale
 70
     0
300
1:4
140
1.0
141
4.0
290
     0
  0
SCALE
  5
4B
102
{ACAD_REACTORS
330
47
102
}
330
47
100
AcDbScale
 70
     0
300
1:5
140
1.0
141
5.0
290
     0
  0
SCALE
  5
4C
102
{ACAD_REACTORS
330
47
102
}
330
47
100
AcDbScale
 70
     0
300
1:8
140
1.0
141
8.0
290
     0
  0
SCALE
  5
4D
102
{ACAD_REACTORS
330
47
102
}
330
47
100
AcDbScale
 70
     0
300
1:10
140
1.0
141
10.0
290
     0
  0
SCALE
  5
4E
102
{ACAD_REACTORS
330
47
102
}
330
47
100
AcDbScale
 70
     0
300
1:16
140
1.0
141
16.0
290
     0
  0
SCALE
  5
4F
102
{ACAD_REACTORS
330
47
102
}
330
47
100
AcDbScale
 70
     0
300
1:20
140
1.0
141
20.0
290
     0
  0
SCALE
  5
50
102
{ACAD_REACTORS
330
47
102
}
330
47
100
AcDbScale
 70
     0
300
1:30
140
1.0
141
30.0
290
     0
  0
SCALE
  5
51
102
{ACAD_REACTORS
330
47
102
}
330
47
100
AcDbScale
 70
     0
300
1:40
140
1.0
141
40.0
290
     0
  0
SCALE
  5
52
102
{ACAD_REACTORS
330
47
102
}
330
47
100
AcDbScale
 70
     0
300
1:50
140
1.0
141
50.0
290
     0
  0
SCALE
  5
53
102
{ACAD_REACTORS
330
47
102
}
330
47
100
AcDbScale
 70
     0
300
1:100
140
1.0
141
100.0
290
     0
  0
SCALE
  5
54
102
{ACAD_REACTORS
330
47
102
}
330
47
100
AcDbScale
 70
     0
300
2:1
140
2.0
141
1.0
290
     0
  0
SCALE
  5
55
102
{ACAD_REACTORS
330
47
102
}
330
47
100
AcDbScale
 70
     0
300
4:1
140
4.0
141
1.0
290
     0
  0
SCALE
  5
56
102
{ACAD_REACTORS
330
47
102
}
330
47
100
AcDbScale
 70
     0
300
8:1
140
8.0
141
1.0
290
     0
  0
SCALE
  5
57
102
{ACAD_REACTORS
330
47
102
}
330
47
100
AcDbScale
 70
     0
300
10:1
140
10.0
141
1.0
290
     0
  0
SCALE
  5
58
102
{ACAD_REACTORS
330
47
102
}
330
47
100
AcDbScale
 70
     0
300
100:1
140
100.0
141
1.0
290
     0
  0
SCALE
  5
59
102
{ACAD_REACTORS
330
47
102
}
330
47
100
AcDbScale
 70
     0
300
1/128" = 1'-0"
140
0.0078125
141
12.0
290
     0
  0
SCALE
  5
5A
102
{ACAD_REACTORS
330
47
102
}
330
47
100
AcDbScale
 70
     0
300
1/64" = 1'-0"
140
0.015625
141
12.0
290
     0
  0
SCALE
  5
5B
102
{ACAD_REACTORS
330
47
102
}
330
47
100
AcDbScale
 70
     0
300
1/32" = 1'-0"
140
0.03125
141
12.0
290
     0
  0
SCALE
  5
5C
102
{ACAD_REACTORS
330
47
102
}
330
47
100
AcDbScale
 70
     0
300
1/16" = 1'-0"
140
0.0625
141
12.0
290
     0
  0
SCALE
  5
5D
102
{ACAD_REACTORS
330
47
102
}
330
47
100
AcDbScale
 70
     0
300
3/32" = 1'-0"
140
0.09375
141
12.0
290
     0
  0
SCALE
  5
5E
102
{ACAD_REACTORS
330
47
102
}
330
47
100
AcDbScale
 70
     0
300
1/8" = 1'-0"
140
0.125
141
12.0
290
     0
  0
SCALE
  5
5F
102
{ACAD_REACTORS
330
47
102
}
330
47
100
AcDbScale
 70
     0
300
3/16" = 1'-0"
140
0.1875
141
12.0
290
     0
  0
SCALE
  5
60
102
{ACAD_REACTORS
330
47
102
}
330
47
100
AcDbScale
 70
     0
300
1/4" = 1'-0"
140
0.25
141
12.0
290
     0
  0
SCALE
  5
61
102
{ACAD_REACTORS
330
47
102
}
330
47
100
AcDbScale
 70
     0
300
3/8" = 1'-0"
140
0.375
141
12.0
290
     0
  0
SCALE
  5
62
102
{ACAD_REACTORS
330
47
102
}
330
47
100
AcDbScale
 70
     0
300
1/2" = 1'-0"
140
0.5
141
12.0
290
     0
  0
SCALE
  5
63
102
{ACAD_REACTORS
330
47
102
}
330
47
100
AcDbScale
 70
     0
300
3/4" = 1'-0"
140
0.75
141
12.0
290
     0
  0
SCALE
  5
64
102
{ACAD_REACTORS
330
47
102
}
330
47
100
AcDbScale
 70
     0
300
1" = 1'-0"
140
1.0
141
12.0
290
     0
  0
SCALE
  5
65
102
{ACAD_REACTORS
330
47
102
}
330
47
100
AcDbScale
 70
     0
300
1-1/2" = 1'-0"
140
1.5
141
12.0
290
     0
  0
SCALE
  5
66
102
{ACAD_REACTORS
330
47
102
}
330
47
100
AcDbScale
 70
     0
300
3" = 1'-0"
140
3.0
141
12.0
290
     0
  0
SCALE
  5
67
102
{ACAD_REACTORS
330
47
102
}
330
47
100
AcDbScale
 70
     0
300
6" = 1'-0"
140
6.0
141
12.0
290
     0
  0
SCALE
  5
68
102
{ACAD_REACTORS
330
47
102
}
330
47
100
AcDbScale
 70
     0
300
1'-0" = 1'-0"
140
12.0
141
12.0
290
     0
  0
ENDSEC
  0
EOF
